Elly & Rikkert

T Beloofde Land

Elly & Rikkert

chords Easy easy

by  JESSGOMES

save to print version add songbook text version e-mail correct tuner
chordsukulelecavacokeyboardtabbassdrumsharmonicaflute Guitar Pro
close

there isn't a video lesson for this song

chords

T Beloofde Land

	  		


verse 1 
G                         Bm 
- Laat me dromen, zei de dromer 
C                          G      D 
- Laat me zingen van 't beloofde land. 
G                        Bm 
- En hij droomde heel de zomer 
C                       D 
- Tot de witte winter kwam. 
            Em 
En met de sneeuw 
             D 
En met de spreeuwen 
                A 
Vervloog zijn droom 
        Em 
Met de vogels mee. 

Solo 
   G           D           F      C      G           F      C      G 
e|-8-7-5-0---|-7-5-3-----|-5----|-3----|-7---------|-5----|-3----|-7---------| 
B|-----------|-------3---|------|------|-----------|------|------|-----------| 
G|-----------|-----------|------|------|-----------|------|------|-----------| 
D|-----------|-----------|------|------|-----------|------|------|-----------| 
A|-----------|-----------|------|------|-----------|------|------|-----------| 
E|-----------|-----------|------|------|-----------|------|------|-----------| 

verse 2 
G                           Bm 
- Laat me vluchten, zei de zwerver 
C                           G      D 
- Laat me reizen naar 't beloofde land. 
G                         Bm 
- En hij vluchtte naar de verte 
C                         D 
- Tot de grijze dood hem nam. 
           Em 
En met de tijd 
             D 
En met zijn eenzaamheid 
               A 
Verdween zijn naam 
          Em 
Achter de horizon. 

Solo 
   G           D           F      C      G           F      C      G 
e|-8-7-5-0---|-7-5-3-----|-5----|-3----|-7---------|-5----|-3----|-7---------| 
B|-----------|-------3---|------|------|-----------|------|------|-----------| 
G|-----------|-----------|------|------|-----------|------|------|-----------| 
D|-----------|-----------|------|------|-----------|------|------|-----------| 
A|-----------|-----------|------|------|-----------|------|------|-----------| 
E|-----------|-----------|------|------|-----------|------|------|-----------| 

verse 3 
G                          Bm 
- Laat ons vechten, zei de keizer 
C                              G      D 
- Laat ons strijden voor 't beloofde land. 
G                           Bm 
- En hij streed met vuur en ijzer 
C                        D 
- En de aarde vloog in brand. 
            Em 
En met zijn wapens 
              D 
En met zijn waardigheid 
            A 
Verloor de keizer 
          Em 
Alles wat hij had. 

Solo 
   G           D           F      C      G           F      C      G 
e|-8-7-5-0---|-7-5-3-----|-5----|-3----|-7---------|-5----|-3----|-7---------| 
B|-----------|-------3---|------|------|-----------|------|------|-----------| 
G|-----------|-----------|------|------|-----------|------|------|-----------| 
D|-----------|-----------|------|------|-----------|------|------|-----------| 
A|-----------|-----------|------|------|-----------|------|------|-----------| 
E|-----------|-----------|------|------|-----------|------|------|-----------| 

verse 4 
G                           Bm 
- Kom mijn schapen, zegt de Herder 
C                        G      D 
- 'k Breng je naar 't beloofde land. 
G                         Bm 
- Kun je niet alleen meer verder 
C                          D 
- 'k Draag je naar de overkant. 
        Em 
Kom dan bij me 
            D 
Je bent de mijne 
          A 
En Ik zal in je zijn 
   Em 
En jij in Mij. 

Post Verse 
         A 
Kom dan bij Mij 
F          C      G     G 
- In 't beloofde land            3x 

Bridge Isaiah 
F                    C 
- Alle vlees is als gras 
                      G 
Als een bloem in het veld 
     G                 G 
Het gras verdort, de bloem valt af 
F                    C                G             G 
- Als de wind van de adem des Heren erover glijdt 
F                       C                   G             G 
- Maar het woord van de Here blijft tot in eeuwigheid. 

Bridge Isaiah 
F                    C 
- Alle vlees is als gras 
                      G 
Als een bloem in het veld 
     G                 G 
Het gras verdort, de bloem valt af 
F                    C                G             G 
- Als de wind van de adem des Heren erover glijdt 
F                       C                   G             G 
- Maar het woord van de Here blijft tot in eeuwigheid. 

End Bridge 
F                 C              G      G 
- Niemand zal je roven uit Mijn hand 
F          C      G      G 
- In 't beloofde land. 


{Spoken Bible text John 10 
                                                        N.C. 
Jezus dan zeide nogmaals: "Voorwaar, voorwaar, Ik zeg u 
                                                        N.C. 
Ik ben de deur der schapen. Allen die vr mij gekomen zijn, 
                                                        N.C. 
zijn dieven en rovers, maar de schapen hebben naar hen niet 
                                                        N.C. 
gehoord. Ik ben de deur; als iemand door Mij binnenkomt, zal 
                                                        N.C. 
Hij behouden worden; en hij zal ingaan en uitgaan en weide 
                                                        N.C. 
vinden. De dief komt niet dan om te stelen en te slachten 
                                                        N.C. 
en te verdelgen; Ik ben gekomen, opdat zij leven hebben en Overvloed. 
                                                        N.C. 
Ik ben de goede herder en Ik ken de mijne en de mijne kennen 
                                                        N.C. 
Mij, gelijk Mij de Vader kent en Ik de Vader ken, en Ik zet 
                                                        N.C. 
Mijn leven in voor de schapen. Nog andere schapen heb Ik, 
                                                        N.C. 
Die niet van deze stal zijn; ook die moet Ik leiden en zij zullen 
                                                        N.C. 
naar mijn stem horen en het zal worden n kudde, n herder." 
		  

Full key step upFull key step up
Half key step upHalf key step up
Half key step downHalf key step down
Full key step downFull key step down
auto scroll beats size up size down change color hide chords simplify chords drawings columns
tab show chords e-chords YouTube Clip e-chords hide all tabs e-chords go to top tab

share