Cra Band

Tubarão

Cra Band

chords

save to print version add songbook text version e-mail correct tuner
chordsukulelecavacokeyboardtabbassdrumsharmonicaflute Guitar Pro
close

there isn't a video lesson for this song

chords

Tubarão

	  		INTRO:

E------------------------------------------------
B------------------------------------------------
G------------------------------------------------
D-----------------------------------------------
A-------2-3-3-2----------2-3-3-2----------------
E-2-2-5---------5-2-2-5----------5-2------------

         F#m                       D
tava pegando uma onda e a onda me derubou
         F#m                    D
dai chegou um tubarão e  minha prancha robou
          F#m                      D
tava pegando uma onda  e a onda me derrubou
         F#m                   D   
dai chegou um tubarão e minha prancha robou
 E
não deixa o pablo engolir  porra
 E
não deixa o pablo englolir caralho
 E
não deixa o pablo engolir   cú
 E
não deixa o pablo engolir

intro
          F#m                    D  
eu consequi fugir mas o tubarão fui atraz de mim
           F#m                      D
então peguei minha "prancha" e fiz ele engolir
         F#m               D
eu consequi fugir mas ele veio atrz de mim 
           F#m                    D
então peguei minha prancha e fiz ele engolir
 E
não deixa o pablo engolir porra
 E
não deixa o pablo engolir carralho
 E
não deixa o pablo engolir cú
 E
não deicha o pablo engolir.........

base do solo é a introdução

solo:
E-----2-----2-------2-----2-------2----2---5-2----2
B-1-2---1-2---3-1-2---1-2---5-1-2---1-2--3----5-2--
G--------------------------------------------------
D--------------------------------------------------
A--------------------------------------------------
E--------------------------------------------------



_______________________________________________________
Contribuição: LUIZ([email protected])
		  

Full key step upFull key step up
Half key step upHalf key step up
Half key step downHalf key step down
Full key step downFull key step down
hide glossary

See also:

chords Roupa Nova - Whisky A Go Go chords Leoni - Garotos chords Ana Carolina - Nua chords LS Jack - Sem Radar chords Ana Carolina - Elevador chords Sandy & Júnior - A Lenda
e-chords

Other versions:

chords Cra Band - Tubarão chords Alkaisers? - Tubarão De Gravata chords Forró Aruêra - Tubarão Martelo chords Ultramen - Tubarãozinho
auto scroll beats size up size down change color hide chords simplify chords drawings columns
tab show chords e-chords YouTube Clip e-chords hide all tabs e-chords go to top tab

share