Christina Grimmie

Must Be Love

Christina Grimmie

chords Easy easy

by  LINEKERS

save to print version add songbook text version e-mail correct tuner
chordsukulelecavacokeyboardtabbassdrumsharmonicaflute Guitar Pro
close

there isn't a video lesson for this song

chords

Must Be Love

	  		
  
************************************  
  
| /   slide up  
| \   slide down  
| h   hammer-on  
| p   pull-off  
| ~   vibrato  
| +   harmonic  
| x   Mute note  
| b   Bend  
| pb  Pre-bend  
| br  Bend release  
| pbr Pre-bend release  
| brb Bend release bend  
  
************************************  
  
Intro: 
e|-------------------------------------------|----------------------------------------------| 
B|-------------------------------------------|----------------------------------------------| 
G|-------------------------------------------|----------------------------------------------| 
D|-------------------------------------------|----------------------------------------------| 
A|-0-0---5/7---0-0--5/7---0-0--5/7-----------|--0-0---5/7---0-0--5/7---0-0--5/7--7-777-x----| 
E|-------------------------------------------|----------------------------------------------| 
  
verse 1: 
e|-------------------------------------------|   |----------------------------------------------| 
B|-------------------------------------------|   |----------------------------------------------| 
G|-------------------------------------------|   |----------------------------------------------| 
D|-------------------------------------------|x3 |----------------------------------------------| 
A|-0-0---5/7---0-0--5/7---0-0--5/7--7-777-7--|   |--0-0---5/7---0-0--5/7------------------------| 
E|-------------------------------------------|   |-------------------------5\0------------------| 
  
I was sitting at the mall with my friends on a Monday  
Saying I was gonna leave this town  
This town, run away  
But then you walked in and I think my heart don't skip a beat  
One look and everything just froze  
  
e|-------------------------------------------|   |----------------------------------------------| 
B|-------------------------------------------|   |----------------------------------------------| 
G|-------------------------------------------|   |----------------------------------------------| 
D|-------------------------------------------|x3 |----------------------------------------------| 
A|-0-0---5/7---0-0--5/7---0-0--5/7--7-777-7--|   |--0-0---5/7---0-0--5/7------------------------| 
E|-------------------------------------------|   |-------------------------5\0------------------| 
  
Like a rock rolling down a hill  
Like a car with no one at the wheel  
Take me to a doctor cause I'm shaking  
I need water tell me do they have a pill  
I'm feeling ill  
  
 
tabchorus
Am Am It must be love, it must be love F G Am It must be loooooooooooooooooove, Am Am it must be love, It must be love F G Am It must be loooooooooooooooooove Am Am It's in my heart, it's in my body F G Am It must be loooooooooooooooooove
tab
verse 2: (Same as verse 1 but the first half ends slightly differently) e|-------------------------------------------| |----------------------------------------------| B|-------------------------------------------| |----------------------------------------------| G|-------------------------------------------| |----------------------------------------------| D|-------------------------------------------|x3 |----------------------------------------------| A|-0-0---5/7---0-0--5/7---0-0--5/7--7-777-7--| |--0-0---5/7---0-0--5/7------------------------| E|-------------------------------------------| |-------------------------5\0----0-1-0-0-0-----| I'm working not to say this and mind my own business Ain't looking for trouble, got no man as part of my wishlist But now you're in my head Get outta there get here instead One smile and everything just froze e|-------------------------------------------| |----------------------------------------------| B|-------------------------------------------| |----------------------------------------------| G|-------------------------------------------| |----------------------------------------------| D|-------------------------------------------|x3 |----------------------------------------------| A|-0-0---5/7---0-0--5/7---0-0--5/7--7-777-7--| |--0-0---5/7---0-0--5/7------------------------| E|-------------------------------------------| |-------------------------5\0------------------| Like a rock rolling down a hill Like a car with no one at the wheel Take me to a doctor cause I'm shaking I need water tell me do they have a pill I'm feeling ill
tabchorus
Am Am It must be love, it must be love F G Am It must be loooooooooooooooooove, Am Am it must be love, It must be love F G Am It must be loooooooooooooooooove Am Am It's in my heart, it's in my body F G Am It must be loooooooooooooooooove
tab
Bridge: Break/Acoustic Percussion solo (See included videos above for this portion) Doctor beat my chest Get out of my bones Not baby for this What's fun on my own Clashes in my head and there must be something wrong I don't know what you did But I can't leave you alone
hide this tabHide
tab
Outro: e|-------------------------------------------| B|-------------------------------------------| G|-------7/9--------7/9--------7/9--9-999-9--| D|-7-7--------7-7---------7-7----------------|x2 A|-------------------------------------------| E|-------------------------------------------| e|-------------------------------------------| |----------------------------------------------| B|-------------------------------------------| |----------------------------------------------| G|-------------------------------------------| |----------------------------------------------| D|-------------------------------------------| |----------------------------------------------| A|-0-0---5/7---0-0--5/7---0-0--5/7--7-777-7--| |--0-0---5/7---0-0--5/7------------------------| E|-------------------------------------------| |-------------------------5\0------------------|
tab
tabchorus
Am Am It must be love, it must be love F G Am It must be loooooooooooooooooove, Am Am it must be love, It must be love F G Am It must be loooooooooooooooooove Am Am It's in my heart, it's in my body F G Am
tab

Full key step upFull key step up
Half key step upHalf key step up
Half key step downHalf key step down
Full key step downFull key step down
hide glossary

See also:

chords Jason Mraz - 93 Million Miles (simplificada) chords Michael Jackson - Heal The World chords Stevie Wonder - I Just Called To Say I Love You chords Gnarls Barkley - Crazy chords Maroon 5 - Sunday Morning chords Rihanna - Stay
e-chords

Other versions:

chords Christina Grimmie - Must Be Love
auto scroll beats size up size down change color hide chords simplify chords drawings columns
tab show chords e-chords YouTube Clip e-chords hide all tabs e-chords go to top tab

share with facebook