30 Seconds To Mars

The Kill (acoustic)

30 Seconds To Mars

chords Expert expert

by  CHARLO1

save to print version add songbook text version e-mail correct tuner
chordsukulelecavacokeyboardtabbassdrumsharmonicaflute Guitar Pro
close

there isn't a video lesson for this song

chords

The Kill (acoustic)

	  		C5                        D5 
     What if I wanted to break 
                         E5 
Laugh it all off in your face 
              B5 
What would you do? 
C5                          D5 
     What if I fell to the floor 
                          E5 
Couldn't take all this anymore 
              B5 
What would you do, do, do? 

C5             D5 
Come break me down and bury me, bury me 
E5                 B5 
I am finished with you 

Viol„o 2: 

           2X                        2X 
E|------------------------|---------------------------| 
B|------------------------|---------------------------|sempre na 2x desse riff 
G|-12-9-------12-9--------|---------12---------12(14)-|vc substitui a ultima nota   
D|-----10-9--9----10-9--9-|-9h10-10----9h10-10--------|12 por 14 q esta entre paranteses 
A|---------10---------10--|---------------------------| 
E|------------------------|---------------------------| 

C5                   D5 
 What if I wanted to fight 
                       E5 
Beg for the rest of my life 
              B5 
What would you do? 
C5 
You say you wanted more 
D5 
 What are you waiting for? 
E5                  B5 
I'm not running from you 

C5             D5 
Come break me down and bury me, bury me 
E5                 B5 
I am finished with you 
C5          D5 
Look in my eyes You're killing me, killing me 
E5               B5 
All I wanted was you 

A5             B5       E5      
   I tried to be someone else 
                        C5        D5 
   But nothing seems to change I know now   
E5 
This  is  who  I   really   am 

  A5            B5       E5                   C5         D5 
Inside  I finally found myself  Fighting for a chance  I know now, 
E5            
This  is  who  I  really  am 

    E5        E5        E5      C5          
e|---------------------------------------| 
B|---------------------------------------| 
G|-9--9-9---9--9-9---9--9-9--5-5-5-5-5-5-| (x3) 
D|-9--9-9---9--9-9---9--9-9--5-5-5-5-5-5-| 
A|-7--7-7---7--7-7---7--7-7--3-3-3-3-3-3-| 
E|---------------------------------------| 

    E5                 F#5         G5 
e|--------------------------------------|           
B|--------------------------------------|   
G|-7--7-7--7--7--7-7/9--9---9--9-/10-10-|    
D|-7--7-7--7--7--7-7/------------/------|   
A|-9--9-9--9--9--9-9/11-11--11-11/12-12-|   
E|--------------------------------------|   

C5             D5 
Come break me down and bury me, bury me 
E5                  B5 
I am finished with you 
C5          D5 
Look in my eyes You're killing me, killing me 
E5               (B5) 
All I wanted was you 
		  

Full key step upFull key step up
Half key step upHalf key step up
Half key step downHalf key step down
Full key step downFull key step down
auto scroll beats size up size down change color hide chords simplify chords drawings columns
tab show chords e-chords YouTube Clip e-chords hide all tabs e-chords go to top tab

share