The Shadows

home > The Shadows

atlantis Bass Tab

The Shadows

Difficulty: AdvancedAdvanced

by europeu

tuner correct add songbook print version text version save to e-mail
chordsukulelecavacokeyboardtabbassdrumsharmonicsflute Guitar Pro
chords

atlantis

	  |Intro                                                     | 
G||----------------------------------------------------------|------| 
D||-3-3------------------------3-3--------------------3-3-5-3|------| 
A||-----3-0-1-1--------------------3-0-11--------------------|------| 
E||-------------1-3--6-5-3?1-3------------1-3--6-5-3---------|------| 
 
 
  |Verse 
G||-----------------------------------------------------------------| 
D||-3---3-3----3-3-3-3-3------------------------1-2-3-3-3-----------| 
A||----------------------3-3-3-3-3-3--2--1--1-1-----------3--3-3-3--| 
E||-----------------------------------------------------------------| 
 
 
G|------------------------------------------------------------------| 
D|---------------------------------3-4-5-5-5------------------------| 
A|-3-3-2-0-0-0--5--5--5-4-2-2-2-2------------3-3-3-0-0-0-1-1-1------| 
E|--------------------------------------------------------------3-3-| 
 
                             | 
G|------------|----------------|--------------|--------------|------| 
D|------------|----------------|--------------|--------------|------| 
A|---1-2-3-3-3|--Repeat Verse--|-Repeat Intro-|-Repeat Verse-|then--| 
E|-3----------|----------------|--------------|--------------|------| 
 
      Outro 
G||-----------------------------------------------------------------| 
D||-3-3------------------------3-3--------------------------3-3-----| 
A||-----3-0-1-1--------------------3-0-11------6-6-6-6-6-6------3-3-| 
E||-------------1-3--6-5-3?1-3------------1-3-----------------------| 
 
 
G|-----------------------------|------------------------------------| 
D|-3-3-----3-3-----3-3-----3-3-|------------------------------------| 
A|-----3-3-----3-3-----3-3-----|------------------------------------| 
E|-----------------------------|------------------------------------| 
 

	  

there isn't a video lesson for this song

request
Search Paypal
auto scroll beats size up size down change color hide chords drawings
tab show chords e-chords YouTube Clip e-chords hide all tabs e-chords go to top tab