The Jesus Lizard

Fifty Cents

The Jesus Lizard

bass

by  HUGO_RODRIGUES

save to print version add songbook text version e-mail correct tuner
chordsukulelecavacokeyboardtabbassdrumsharmonicaflute Guitar Pro
close

there isn't a video lesson for this song

chords

Fifty Cents

	  		
Intro 

G|-------------------------------------------------------------------| 
D|-------------------------------------------------------------------| 
A|--4---------0-2-3-4---------0-2-3-4---------0-2-3-4---------0-2-3--|x4 
E|----0-2-3-4---------0-2-3-4---------0-2-3-4---------0-2-3-4--------| 

verse 1 

G|-----------------------------------------------------------------------------------| 
D|------------------5-------------------5-------------------5-------------------5----| 
A|--------------7-------------------7-------------------7-------------------7--------|x2 
E|--9\\\\\\-4//---------9\\\\\\-4//---------9\\\\\\-4//---------9\\\\\\-4//----------| 

G|-------------------------------------------------------------------------------1----| 
D|------------------0-------------------0-------------------0-----------------0-------| 
A|--------2-----4-------------2-----4-2-----------2-----4-------------2---4-2---------| 
E|--4-------------------4-------------------4-------------------4---------------------| 

G|------------------------------------------------------------------------------2-----| 
D|---------------------------------------------------------------------2---4----------| 
A|--------0-----2---3----------0-----2-0-3---------0-----2---3---4--------------------| 
E|--2-------------------2--------------------2----------------------------------------| 

Play all of verse 1 twice  

Instrumental 1  

G|-------------------------------------------------------------------| 
D|-------------------------------------------------------------------| 
A|--4---------0-2-3-4---------0-2-3-4---------0-2-3-4---------0-2-3--|x4 
E|----0-2-3-4---------0-2-3-4---------0-2-3-4---------0-2-3-4--------| 

Bridge  

G|-----------------------------------------------------------------------------------| 
D|--------6---------5---------6---------5---------6---------5---------6---------5----| 
A|--4-----------7-------4-----------7-------4-----------7-------4-----------7--------| 
E|-----------------------------------------------------------------------------------| 

G|-----------------------------------------------------------------------------------| 
D|------------------5-------------------5-------------------5-------------------5----| 
A|--------------7-------------------7-------------------7-------------------7--------| 
E|--9\\\\\\-------------9\\\\\\-------------9\\\\\\-------------9\\\\\\--------------| 

G|-------------------------------------------------------------------------------1----| 
D|------------------0-------------------0-------------------0-----------------0-------| 
A|--------2-----4-------------2-----4-2-----------2-----4-------------2---4-2---------| 
E|--4-------------------4-------------------4-------------------4---------------------| 

G|------------------------------------------------------------------------------2-----| 
D|---------------------------------------------------------------------2---4----------| 
A|--------0-----2---3----------0-----2-0-3---------0-----2---3---4--------------------| 
E|--2-------------------2--------------------2----------------------------------------| 

verse 2 

G|-----------------------------------------------------------------------------------| 
D|------------------5-------------------5-------------------5-------------------5----| 
A|--------------7-------------------7-------------------7-------------------7--------| 
E|--9\\\\\\-4//---------9\\\\\\-4//---------9\\\\\\-4//---------9\\\\\\-4//----------| 

G|---------------------------------------------------------------------------------------| 
D|---------------------------------------------------------------------------------------| 
A|----------11---7---9-----------11---7---9-----------11---7---9-----------11---7---9----| 
E|--9\\\\\\--------------9\\\\\\--------------9\\\\\\--------------9\\\\\\---------------| 

G|-------------------------------------------------------------------------------1----| 
D|------------------0-------------------0-------------------0-----------------0-------| 
A|--------2-----4-------------2-----4-2-----------2-----4-------------2---4-2---------| 
E|--4-------------------4-------------------4-------------------4---------------------| 

G|------------------------------------------------------------------------------2-----| 
D|---------------------------------------------------------------------2---4----------| 
A|--------0-----2---3----------0-----2-0-3---------0-----2---3---4--------------------| 
E|--2-------------------2--------------------2----------------------------------------| 

Play all of verse 2 twice, then end on:  

G|------| 
D|------| 
A|--4~--| 
E|------| 

=============== 
/ - slide up 
\ - slide down  
~ - sustain  
=============== 
		  

See also:

bass Good Charlotte - Bloody Valentine bass Audioslave - Doesn't Remind Me bass Ben Harper - With My Own Two Hands bass Red Hot Chili Peppers - Can't Stop bass Red Hot Chili Peppers - By The Way (ver. 3) bass Audioslave - Like a Stone
e-chords

Other versions:

bass The Jesus Lizard - Fifty Cents
auto scroll beats size up size down change color hide chords drawings
tab show chords e-chords YouTube Clip e-chords hide all tabs e-chords go to top tab

share