The Dead Milkmen

I Walk The Thinnest Line

The Dead Milkmen

bass

by  JOAOEWERTON

save to print version add songbook text version e-mail correct tuner
chordsukulelecavacokeyboardtabbassdrumsharmonicaflute Guitar Pro
close

there isn't a video lesson for this song

chords

I Walk The Thinnest Line

	  		
Intro 

G|-4-3-2-------| 
D|-------2-1-0-| 
A|-------------| x2 
E|-------------| 

Chorus 

G|-4-3-2-------|-4-3-2-------|-----------------------------|-4-3-2-------| 
D|-------2-1-0-|-------2-1-0-|-----------------------------|-------2-1-0-| 
A|-------------|-------------|---------------3--3-3--3-3-3-|-------------| x2 
E|-------------|-------------|-3--3-3--3-3-3---------------|-------------| 

verse 1 

G|-----------------------------|-----------------------------| 
D|-----------------------------|-----------------------------| 
A|---------------3--3-3--3-3-3-|-----------------------------| x2 
E|-5--5-5--5-5-5---------------|-3--3-3--3-3-3-1--1-1--1-1-1-| 

G|-----------------------------|---------------| 
D|-----------------------------|---------------| 
A|---------------3--3-3--3-3-3-|-3--3-3--3-3-3-| 
E|-0--0-0--0-0-0---------------|---------------| 

Chorus 

G|-4-3-2-------|-4-3-2-------|-----------------------------|-4-3-2-------| 
D|-------2-1-0-|-------2-1-0-|-----------------------------|-------2-1-0-| 
A|-------------|-------------|---------------3--3-3--3-3-3-|-------------| x2 
E|-------------|-------------|-3--3-3--3-3-3---------------|-------------| 

verse 2 

G|-----------------------------|-----------------------------| 
D|-----------------------------|-----------------------------| 
A|---------------3--3-3--3-3-3-|-----------------------------| x2 
E|-5--5-5--5-5-5---------------|-3--3-3--3-3-3-1--1-1--1-1-1-| 

G|-----------------------------|---------------| 
D|-----------------------------|---------------| 
A|---------------3--3-3--3-3-3-|-3--3-3--3-3-3-| 
E|-0--0-0--0-0-0---------------|---------------| 

Solo 

G|-4-3-2-------|     G|-----------------------------|     G|-4-3-2-------| 
D|-------2-1-0-|     D|-----------------------------|     D|-------2-1-0-| 
A|-------------|  x4 A|---------------3--3-3--3-3-3-|  x3 A|-------------| 
E|-------------|     E|-3--3-3--3-3-3---------------|     E|-------------| 

G|-----------------------|--------------|-----------------------|----------0--| 
D|-----------------------|--------------|-----------------------|----0--2-----| 
A|-5-5--5-5-5------------|-3--2---------|-5-5--5-5-5------------|-3-----------| 
E|------------1-1--1-1-1-|-------5---3--|------------1-1--1-1-1-|-------------| 

G|-14--16--19--21--|-17--16--14--12--|-14--12--10--9--|-14--12--14--x--| 
D|-----------------|-----------------|----------------|----------------| 
A|-----------------|-----------------|----------------|----------------| 
E|-----------------|-----------------|----------------|----------------| 

G|-9--10--9--7--|-0--------| 
D|--------------|----------| 
A|--------------|----------| 
E|--------------|----------| 

Chorus 

G|-4-3-2-------|-4-3-2-------|-----------------------------|-4-3-2-------| 
D|-------2-1-0-|-------2-1-0-|-----------------------------|-------2-1-0-| 
A|-------------|-------------|---------------3--3-3--3-3-3-|-------------|  x2 
E|-------------|-------------|-3--3-3--3-3-3---------------|-------------| 

Verse/Outro 

G|-----------------------------|-----------------------------| 
D|-----------------------------|-----------------------------| 
A|---------------3--3-3--3-3-3-|-----------------------------|  x2 
E|-5--5-5--5-5-5---------------|-3--3-3--3-3-3-1--1-1--1-1-1-| 

G|-----------------------------|-----------------------------| 
D|-----------------------------|-----------------------------| 
A|---------------3--3-3--3-3-3-|-3--3-3--3-3-3-3--3-3--3-3-3-| 
E|-0--0-0--0-0-0---------------|-----------------------------| 

G|-----------------------------|-----------------------------| 
D|-----------------------------|-----------------------------| 
A|-3--3-3--3-3-3-3--3-3--3-3-3-|-3--3-3--3-3-3-3--3-3--3-3-3-| 
E|-----------------------------|-----------------------------| 

G|-----------------------------| 
D|-----------------------------| 
A|-3--3-3--3-3-3-3-------------| 
E|-----------------------------| 

************************** 
  x   Dead Note  
************************** 
		  

See also:

bass Deep Purple - Burn bass Deep Purple - Child in time bass Deep Purple - Smoke On The Water bass Deep Purple - Lady Double Dealer bass Deep Purple - Fire Ball bass Deep Purple - Smoke On The Water (ver. 3)
e-chords

Other versions:

bass The Dead Milkmen - I Walk The Thinnest Line
auto scroll beats size up size down change color hide chords drawings
tab show chords e-chords YouTube Clip e-chords hide all tabs e-chords go to top tab

share