The Chapelaires

Gloria

The Chapelaires

bass

by  GUSTSILVA

save to print version add songbook text version e-mail correct tuner
chordsukulelecavacokeyboardtabbassdrumsharmonicaflute Guitar Pro
close

there isn't a video lesson for this song

chords

Gloria

	  		
Intro 
G|---------3-----|--------------| (x2) 
D|-----3---------|-4------6-----| 
A|-4-------------|--------------| 
E|---------------|--------------| 

Verse 
G|--------------|--------------|--------------|--------------| 
D|--------------|-4------6-----|--------------|-4------6-----| 
A|-4------4-----|--------------|-4------4-----|--------------| 
E|--------------|--------------|--------------|--------------| 

G|---------3-----|--------------|--------------|--------------| 
D|-----3---------|-4------6-----|--------------|-4------6-----| 
A|-4-------------|--------------|-4------4-----|--------------| 
E|---------------|--------------|--------------|--------------| 

G|--------------|--------------|---------3-----|--------------| 
D|--------------|-4------6-----|-----3---------|-4------6-----| 
A|-4------4-----|--------------|-4-------------|--------------| 
E|--------------|--------------|---------------|--------------| 

G|---------3-----|--------------|--------------|---------------| 
D|-----3---------|-4------6-----|--------4-----|------------3--| 
A|-4-------------|--------------|-4------------|-4------4------| 
E|---------------|--------------|--------------|---------------| 

Bridge 
G|--------------|--------------|--------------|---------------| 
D|-4------4-----|-4------4-----|--------------|------------3--| 
A|--------------|--------------|-4------4-----|-4------4------| 
E|--------------|--------------|--------------|---------------| 

G|--------------|--------------|--------------|----------------| 
D|-4------4-----|-4------4-----|-4------4-----|-6---4---3------| 
A|--------------|--------------|--------------|-------------6--| 
E|--------------|--------------|--------------|----------------| 

Verse 
G|--------------|--------------|---------3-----|--------------| 
D|--------------|-4------6-----|-----3---------|-4------6-----| 
A|-4------4-----|--------------|-4-------------|--------------| 
E|--------------|--------------|---------------|--------------| 

G|---------3-----|--------------| 
D|-----3---------|-4------6-----| 
A|-4-------------|--------------| 
E|---------------|--------------| 

(02:08 ~ 02:13 - No Bass Guitar) 

Bass Outro 
(02:14) 
G|---------3-----|--| 
D|-----3---------|-4| 
A|-4-------------|--| 
E|---------------|--| 
		  

See also:

bass Deep Purple - When a Blind man cries bass Deep Purple - Black Night bass Deep Purple - Strange kind of woman bass Deep Purple - Fire Ball bass Deep Purple - Knocking At Your Back Door bass Deep Purple - Into The Fire
e-chords

Other versions:

bass The Chapelaires - Gloria
auto scroll beats size up size down change color hide chords drawings
tab show chords e-chords YouTube Clip e-chords hide all tabs e-chords go to top tab

share