System Of A Down

home > System Of A Down

Revenga Bass Tab

System Of A Down

Difficulty: nolevelnolevel

by meta11eir0

tuner correct add songbook print version text version save to e-mail
chordsukulelecavacokeyboardtabbassdrumsharmonicsflute Guitar Pro
chords

Revenga

Year: 2005 - Album: Mezmerize

(Malakian / Tankian)

  		System Of A Down 
Revenga 
 
 
Afinação:(Db,Ab,Db,Gb) 
 
 
Intro 
Gb-----------------|----------------|----------------|----------------- 
Db-----------------|----------------|----------------|----------------- 
Ab-----------------|----------------|----------------|----------------- 
Db-0----7----8-----|----8-7-5-------|----------------|----------------- 
 
 
Verso 
Gb--------------------------------------------------------------------- 
Db--------------------------------------------------------------------- 
Ab--------------------------------------------------------------------- 
Db-00000000000000000555-0000000000000000053535353-00000000000000000555- 
 
Gb--------------------------------------------------------------------- 
Db--------------------------------------------------------------------- 
Ab--------------------------------------------------------------------- 
Db-000000000000000053535353-55550-55550-55550-55550-55556-------------- 
 
Gb--------------------------------------------------------------------- 
Db--------------------------------------------------------------------- 
Ab--------------------------------------------------------------------- 
Db-55550-55550-5555-7-8-753-------------------------------------------- 
 
Gb--------------------------------------------------------------------- 
Db--------------------------------------------------------------------- 
Ab--------------------------------------------------------------------- 
Db-55550-55550-55550-55550-5555-6--55550-55550-5555-6-7-8-9------------ 
 
 
Refrao(x2) 
Gb--------------------------------------------------------------------- 
Db--------------------------------------------------------------------- 
Ab--------------------------------------------------------------------- 
Db-5-000000--5-000000--7-000000--7-000000--8-000000-------------------- 
 
Gb--------------------------------------------------------------------- 
Db--------------------------------------------------------------------- 
Ab--------------------------------------------------------------------- 
Db-8-00-8-7-5-000000-3-000000------------------------------------------ 
 
 
Verso 
Gb--------------------------------------------------------------------- 
Db--------------------------------------------------------------------- 
Ab--------------------------------------------------------------------- 
Db-55550-55550-55550-55550-5555-6--55550-55550-5555-7-8-753------------ 
 
Gb--------------------------------------------------------------------- 
Db--------------------------------------------------------------------- 
Ab--------------------------------------------------------------------- 
Db-55550-55550-55550-55550-5555-6--55550-55550-5555-6-7-8-9------------ 
 
 
Refrao(x2) 
Gb--------------------------------------------------------------------- 
Db--------------------------------------------------------------------- 
Ab--------------------------------------------------------------------- 
Db-5-000000--5-000000--7-000000--7-000000--8-000000-------------------- 
 
Gb--------------------------------------------------------------------- 
Db--------------------------------------------------------------------- 
Ab--------------------------------------------------------------------- 
Db-8-00-8-7-5-000000-3-000000------------------------------------------ 
 
 
Verso 
Gb--------------------------------------------------------------------- 
Db--------------------------------------------------------------------- 
Ab--------------------------------------------------------------------- 
Db-00000000000000000555-0000000000000000053535353---------------------- 
 
Gb--------------------------------------------------------------------- 
Db--------------------------------------------------------------------- 
Ab--------------------------------------------------------------------- 
Db-00000000000000000555-0000000000000000053535353---------------------- 
 
 
Ponte(x3) 
Gb--------------------------------------------------------------------- 
Db--------------------------------------------------------------------- 
Ab--------------------------------------------------------------------- 
Db-0000-0-0-0000-0-0--7777-7-7-7777-7-7--8888-8-8-8888-8-8------------- 
 
Gb--------------------------------------------------------------------- 
Db--------------------------------------------------------------------- 
Ab--------------------------------------------------------------------- 
Db-5555-5-5-5555-5-5--------------------------------------------------- 
 
 
Refrao(x2) 
Gb--------------------------------------------------------------------- 
Db--------------------------------------------------------------------- 
Ab--------------------------------------------------------------------- 
Db-5-000000--5-000000--7-000000--7-000000--8-000000-------------------- 
 
Gb--------------------------------------------------------------------- 
Db--------------------------------------------------------------------- 
Ab--------------------------------------------------------------------- 
Db-8-00-8-7-5-000000-3-000000------------------------------------------ 
 
Outro 
Gb--------------------------------------------------------------------- 
Db--------------------------------------------------------------------- 
Ab--------------------------------------------------------------------- 
Db-55550-55550-55550-55550-55556--55550-55550-5555-7-8-753------------- 
 
Gb--------------------------------------------------------------------- 
Db--------------------------------------------------------------------- 
Ab--------------------------------------------------------------------- 
Db-00000000000000000555-0000000000000000053535353-00000000000000000555- 
 
Gb--------------------------------------------------------------------- 
Db--------------------------------------------------------------------- 
Ab--------------------------------------------------------------------- 
Db-0000000000000000053535353-5----------------------------------------- 
 
 

	  

Search Paypal
auto scroll beats size up size down change color hide chords drawings
tab show chords e-chords YouTube Clip e-chords hide all tabs e-chords go to top tab