Seahaven

Black And White

Seahaven

bass

by  EDUCASTILHO

save to print version add songbook text version e-mail correct tuner
chordsukulelecavacokeyboardtabbassdrumsharmonicaflute Guitar Pro
close

there isn't a video lesson for this song

chords

Black And White

	  		                 intro 
G -----------------------------------------------------------------------------| 
D ---------0--------------------------0----------------------------------------| 
A -----------------------------------------------------------------------------| 
D -7-99999---9999-7-999999----7-99999---9999--7------0-------------------------| 

                 chorus 
G -----------------------------------------------------------------------------| 
D ---------0--------------0-0-0----------0-------------------------------------| 
A -----------------------------------------------------------------------------| 
D -7-99999---9999-7-999999-------7-99999---9999--7------0----------------------| 

                 verse 
G -----------------------------------------------------------------------------| 
D -----------------------------------------------------------------------------| 
A -----------------------------------------------------------------------------| 
D ------9----------------7-------5---------------------------------------------| 
                 bridge 
G ------------------------------------------------------------------------------| 
D ------------------------------------------------------------------------------| 
A ------------------------------------------------------------------------------| 
D ------9-------9---------9-----------------------------------------------------| 

G ------------------------------------------------------------------------------| 
D ------------------------------------------------------------------------------| 
A ------------------------------------------------------------------------------| 
D ------7-99999-0------55555--5-0--2-0000---------------------------------------|  
		  

See also:

bass Daughter - Love bass Daughter - Glass bass Daughter - All I Wanted bass Seahaven - Black And White
e-chords

Other versions:

bass Seahaven - Black And White
auto scroll beats size up size down change color hide chords drawings
tab show chords e-chords YouTube Clip e-chords hide all tabs e-chords go to top tab

share