Resgate

home > Resgate

O Meu Lugar Bass Tab

Resgate

Difficulty: nolevelnolevel

by Bandhana

tuner correct add songbook print version text version save to e-mail
chordsukulelecavacokeyboardtabbassdrumsharmonicsflute Guitar Pro
chords

O Meu Lugar

  		  
Obs.: Esse é o jeito que eu toco... 
é bem parecido com o original, mas provavelmente  
o Marcelo Amorim faz um pouco diferente. 
 
INTRO e COMEÇO da 1ª strf: 
 
G||--------------------|| 
D||--------------------|| 
A||--5----4------5--7--|| 
E||-----------5--------|| 
 
 
FINAL da 1ª strf: 
 
G||----------------------------------------------------------------------|| 
D||----------------------------------------------------------------------|| 
A||--------5-5-------3-3-------------------------------3-------------3-3-|| 
E||-0----------------------3--2--0---0------------5-5-----0-----5-5------|| 
      E o tempo não passa              Tudo queu tenho     uma certeza-a-a 
 
 
Refrão: 
 
G||------------------------|| 
D||------------------------|| 
A||-----------5--5---3--3--||   
E||----3--3----------------|| 
 
 
G||----------------------------------|| 
D||----------------------------------|| 
A||--------2--3--5--3--2----3--2-----|| 
E||--3--5----------------5--------3--|| 
    "e não há lugar aonde  descansar"  
 
Na segunda parte da música("Tua mente...") rptir tudo 
 
 

	  

Search Paypal
auto scroll beats size up size down change color hide chords drawings
tab show chords e-chords YouTube Clip e-chords hide all tabs e-chords go to top tab