Ramones

home > Ramones

Beat On The Brat Bass Tab

Ramones

Difficulty: BeginnerBeginner

by Cinho+Punk+182

tuner correct add songbook print version text version save to e-mail
chordsukulelecavacokeyboardtabbassdrummharmonicsflute Guitar Pro
chords

Beat On The Brat

  		Play entire song twice. 
|---------------|----------------|-----------------|------------------| 
|-------------2-|--------------2-|-----2---------2-|*-----------------| 
|2-2-2-2-2-2----|-2-2-2-2-2-2----|-2-2-----2-2-----|*-2-2-2-2-2-2-2-2-| 
|---------------|----------------|-----------------|------------------| 
 
|----------------|----------------|----------------|----------------| 
|----------------|----------------|----------------|----------------| 
|2-2-2-2-2-2-2-2-|2-2-2-2-2-2-2-2-|2-2-2-2-2-2-2-2-|2-2-2-2-2-2-2-2-| 
|----------------|----------------|----------------|----------------| 
                  Beat on the brat,beat on the brat,beat on the brat 
 
|----------------|-----------------|------------------|----------------| 
|----------------|2---2-2---2-2----|--4---4-4---4-4-*-|----------------| 
|2-2-2-2-2-2-2-2-|-----------------|----------------*-|2-2-2-2-2-2-2-2-| 
|----------------|-----------------|------------------|----------------| 
with a baseball bat!     OH yeah,              Oh yeah, oh............ 
 
|----------------|-----------------|-----------------|----------------| 
|----------------|-2---2-2--2-2----|--4---4-4--4-4---|----------------| 
|2-2-2-2-2-2-2-2-|-----------------|-----------------|2-2-2-2-2-2-2-2-| 
|----------------|-----------------|-----------------|----------------| 
                  Oh yeah,            OH yeah, oh........  
 
                  Chorus  
|----------------|--2--2-2---2-2---|-----------------|--2---2-2---2-2--| 
|----------------|-----------------|--4---4-4---4-4--|-----------------| 
|2-2-2-2-2-2-2-2-|-----------------|-----------------|-----------------| 
|----------------|-----------------|-----------------|-----------------| 
 
|-----------------|-----------------|------------------|----------------| 
|--4---4-4---4-4--|*----------------|--2---2-2---2-2---|----------------| 
|-----------------|*2-2-2-2-2-2-2-2-|------------------|2-2-2-2-2-2-2-2-| 
|-----------------|-----------------|------------------|----------------| 
                  What can you do????                   What can you do??  
 
|-----------------|----------------|----------------|----------------| 
|---2---2-2---2-2-|----------------|----------------|----------------| 
|-----------------|2-2-2-2-2-2-2-2-|2-2-2-2-2-2-2-2-|2-2-2-2-2-2-2-2-| 
|-----------------|----------------|----------------|----------------| 
            With a brat like that, how it's on your back, what can you 
  
|---2---2-2---2-2-|-----------------|2---2-2---2-2-|----------------| 
|-----------------|-4---4-4---4-4-*-|--------------|4---4-4---4-4---| 
|-----------------|---------------*-|--------------|----------------| 
|-----------------|-----------------|--------------|----------------| 
 lose???                            ........lose??? 
 
 
 
By: [email protected] 

	  

Search Paypal
auto scroll beats size up size down change color hide chords drawings
tab show chords e-chords YouTube Clip e-chords hide all tabs e-chords go to top tab