Radwimps

Zen Zen Zense

Radwimps

bass

by  IRONPOWER4EVER

save to print version add songbook text version e-mail correct tuner
chordsukulelecavacokeyboardtabbassdrumsharmonicaflute Guitar Pro
close

there isn't a video lesson for this song

chords

Zen Zen Zense

	  		

Intro 
    1 + 2 + 3 + 4 +                    1 + 2 + 3 + 4 + 
Gb|-----------------|---------------|------------------|--------------| 
Db|-----------------|---------------|------------------|--------------| 
Ab|-----------------|---------------|------------------|--------------| 
Eb|-8\----1~--------|---------------|-/8\----1~--------|--------------| 

    1 + 2 + 3 + 4 +                   1 + 2 + 3 + 4 +   
Gb|-----------------|---------------|------------------|------------------| 
Db|-----------------|---------------|------------------|------------------| 
Ab|-----------------|---------------|------------------|------------------| 
Eb|-8\----1~--------|---------------|-/8\----1~--------|-1--1--1--1--1--1-| 

    1 + 2 + 3 + 4 +   1 + 2 + 3 + 4 +   1 + 2 + 3 + 4 +   1 + 2 + 3 + 4 + 
Gb|-----------------|-----------------|-----------------|-----------------| 
Db|-----------------|-----------------|-----------------|-----------------| 
Ab|-----------------|-----------------|-----------------|-----------------| 
Eb|-5-5-5-1-1-1-3-3-|-3-3-3-3-3-3-3-3-|-5-5-5-1-1-1-3-3-|-3-3-3-3-3-3-1-3-| 

    1 + 2 + 3 + 4 +   1 + 2 + 3 + 4 +   1 + 2 + 3 + 4 +    1  + 2 + 3 + 4 + 
Gb|-----------------|-----------------|-----------------|-------------------| 
Db|-----------------|-----------------|-----------------|-------------------| 
Ab|-----------------|-----------------|-----------------|-------------------| 
Eb|-5-5-5-1-1-1-3-3-|-3-3-3-3-3-3-3---|-1~--------------|-/13-\---------3/--| 

1st verse 
    1 + 2 + 3 + 4 +   1 + 2 + 3 + 4 +    1 + 2 + 3 + 4 +   1 + 2 + 3 + 4 + 
Gb|-----------------|------------------|-----------------|-----------------| 
Db|-----------------|------------------|-----------------|-----------------| 
Ab|-----------------|---------------10-|-8---8-8-8-8-8-8-|-8-8-8-8-8-8-8---| 
Eb|-8---8-8-8-8-8-8-|-8-8-8-8-8-8-8----|-----------------|---------------8-| 

    1 + 2 + 3 + 4 +   1 + 2 + 3 + 4 +   1 + 2 + 3 + 4 +   1 + 2 + 3 + 4 + 
Gb|-----------------|-----------------|-----------------|-----------------| 
Db|---------------7-|-5---5-5-5-5-----|-----------------|-----------------| 
Ab|-------------7---|-------------5---|-----------------|---------------2-| 
Eb|-5---5-5-5-5-----|---------------3-|-1---1-1-1-1-1-1-|-1-1-1-1-1-1-1---| 

    1 + 2 + 3 + 4 +   1 + 2 + 3 + 4 +   1 + 2 + 3 + 4 +   1 + 2 + 3 + 4 + 
Gb|-----------------|-----------------|-----------------|-----------------| 
Db|-----------------|---------------5-|-3---3-3-3-3-3-3-|-3-3-3-3-3-3-3---| 
Ab|-3---3---3-3-3-3-|-3-3-3-3-3---3---|-----------------|---------------3-| 
Eb|-----------------|-----------3-----|-----------------|-----------------| 

    1 + 2 + 3 + 4 +   1 + 2 + 3 + 4 +   1 + 2 + 3 + 4 +    1  +  2   + 3  +  4 + 
Gb|-----------------|-----------------|-----------------|-------------------------| 
Db|---------------7-|-5---5-5-5-5-0-5-|-3---3-3-3-3-3-3-|-/10-10-10-10-10-10-10\--| 
Ab|-0---0-0-0-0-7---|-----------------|-----------------|-------------------------| 
Eb|-----------------|-----------------|-----------------|-------------------------| 

    1 + 2 + 3 + 4 +   1 + 2 + 3 + 4 +   1 + 2 + 3 + 4 +   1  +  2  +  3 + 4 + 
Gb|-----------------|-----------------|-----------------|---------------------| 
Db|-----------------|-----------------|-----------------|---------------------| 
Ab|-----------------|-----------------|-8---8-8-8-8-8---|------/15-15\--------| 
Eb|-5---5-5-5-5-5-5-|-3---3-3-3-3-3/--|---------------8-|-1-/8----------------| 

1st Pre-Chorus 
    1 + 2 + 3 + 4 +   1 + 2 + 3 + 4 +   1 + 2 + 3 + 4 +   1 + 2 + 3 + 4 + 
Gb|-----------------|---------5-------|-----------------|-----------------| 
Db|-------------3---|---3---3---3-----|-----------------|-----------------| 
Ab|-0-0-0-0-0-------|-----3-------3---|-3-3-3-3-3-------|---------------0-| 
Eb|-----------------|---------------1-|-------------3---|---3-3-3-3-3-3---| 

    1 + 2 + 3 + 4 +   1 + 2 + 3 + 4 +   1 + 2 + 3 + 4 +   1 + 2 + 3 + 4 + 
Gb|-----------------|---------5-------|-----------------|-----------------| 
Db|-------------3---|---3---3---3-----|-----------------|---0-5-0-5-0-2-3-| 
Ab|-0-0-0-0-0-------|-----3-------3---|-3-3-3-3-3-------|-----------------| 
Eb|-----------------|---------------1-|-------------3/--|-----------------| 

    1 + 2 + 3 + 4 +   1 + 2 + 3 + 4 +   1 + 2 + 3 + 4 +    1 + 2 + 3 + 4 + 
Gb|-----------------|-----------------|------------------|-----------------| 
Db|-2---2-2-2---2-3-|---3---3---3-----|------------------|-----7-5---5-----| 
Ab|---2-------2-----|-----3-------3---|-----------5------|-------------7---| 
Eb|-----------------|-----------------|-3-3-3-3-3---3-/5-|---5-------------| 

    1 + 2 + 3 + 4 +   1 + 2 + 3 + 4 +   1 + 2 + 3 + 4 +   1 + 2 +  3  +  4 + 
Gb|-----------------|-----------------|-----------------|----------------12\--| 
Db|-4-0-4---4-0-4-4-|-3-3---3---3---0-|-5---5-5-5-5-5-5-|-5-5-5-5-/12-12------| 
Ab|-----------------|-----3-------3---|-----------------|---------------------| 
Eb|-----------------|-----------------|-----------------|---------------------| 

    1 + 2 + 3 + 4 +   1 + 2 + 3 + 4 +  
Gb|-----------------|-----------------| 
Db|-----------------|---5-5-5-5-------| 
Ab|-----------------|-5---------------| 
Eb|-3---3-3-3-3-3-3-|-----------------| 

1st Chorus 
    1 + 2 + 3 + 4 +   1 + 2 + 3 + 4 +   1 + 2 + 3 + 4 +    1 +  2  +  3  +  4  + 
Gb|-----------------|-----------------|------------------|------------------------| 
Db|-----------------|-----------------|------------------|------------------------| 
Ab|-0---0-0-0-0-0-8-|---8-8-8-8-8-8-8-|---------------10-|---10-10-10-10-10-10-10-| 
Eb|-----------------|-----------------|-8---8-8-8-8-8----|------------------------| 

    1 + 2 + 3 + 4 +   1 + 2 + 3 + 4 +   1  + 2  +  3  +  4   +   1 + 2 + 3 + 4 + 
Gb|-----------------|-----------------|------------------------|-----------------| 
Db|-----------------|-----------------|------------------------|-----------------| 
Ab|-0---0-0-0-0-0-8-|---8-8-8-8-8-8-8-|-10---10-10-10-10-10\---|-------3---2-3-3-| 
Eb|-----------------|-----------------|----------------------3-|-----3-----------| 

    1 + 2 + 3 + 4 +   1 + 2 + 3 + 4 +   1 + 2 + 3 + 4 +    1 +  2  +  3  +  4  + 
Gb|-----------------|-----------------|------------------|------------------------| 
Db|-----------------|-----------------|------------------|------------------------| 
Ab|-0---0-0-0-0-0-8-|---8-8-8-8-8-8-8-|-----------7-8-10-|---10-10-10-10-10-10-10-| 
Eb|-----------------|-----------------|-8---8-8-8--------|------------------------| 

    1 + 2 + 3 + 4 +   1 + 2 + 3 + 4 +   1 + 2 + 3 + 4 +    1  +  2  +  3  +  4  + 
Gb|-----------------|-----------------|------------------|------------------------| 
Db|-----------------|-----------------|------------------|------------------------| 
Ab|-0---0-0-0-0-0-8-|---8-8-8-8-8-8-8-|------------------|----15-15-15-15-15-15\--| 
Eb|-----------------|-----------------|-8---8-8-8-8-8-8/-|-15---------------------| 

    1 + 2 + 3 + 4 +   1 + 2 + 3 + 4 +   1 + 2 + 3 + 4 +    1 + 2 + 3 + 4 + 
Gb|-----------------|-----------------|-----------------|-----------------| 
Db|-----------------|-----------------|-----------------|-----------------| 
Ab|---------------2-|---2---2---2---2-|-3~--------------|-(3)-------------| 
Eb|-5-0-5-5-5-0-5---|-----3-------3---|-----------------|-----------------| 

interlude 
    1 + 2 + 3 + 4 +   1 + 2 + 3 + 4 +   1 + 2 + 3 + 4 +   1 + 2 + 3 + 4 + 
Gb|-----------------|-----------------|-----------------|---------------7-| 
Db|-----------------|-----------------|-----------------|-----5-0-5-7-5---| 
Ab|-----------------|-----------------|-----------------|-5-5-------------| 
Eb|-5-5-5-1-1-1-3-3-|-3-3-3-3-3-3-1-3-|-5-5-5-1-1-1-3-3-|-----------------| 

    1 + 2 + 3  + 4 +   1 + 2 + 3 + 4 +   1 + 2 + 3 + 4 +   1 + 2 + 3 +  4  + 
Gb|-5----------------|-----------------|-----------------|--------------------| 
Db|---7-5-7-5\-3-5-2-|-0-2-0-----------|-----------------|--------------------| 
Ab|------------------|-------3-5-3-----|-8-8-8-7-7-7-8-8-|-8-7-7-7-8-10-10-10-| 
Eb|------------------|-------------3---|-----------------|--------------------| 

2nd verse 
    1 + 2 + 3 + 4 +       1  + 2 +      3 + 4 +       1  + 2 + 3 + 4 +   1 + 2 + 3 + 4  + 
Gb|---------------17h19-|-p17----12h14p12-----10h12-|-p10--------------|------------------| 
Db|---------------------|---------------------------|------------------|------------------| 
Ab|---------------------|---------------------------|------------------|---------8---10---| 
Eb|---------------------|---------------------------|------------------|------------------| 

    1 + 2 + 3 + 4 +   1 + 2 + 3 + 4 +   1 + 2 + 3 + 4 +   1 + 2 + 3 + 4 + 
Gb|-------9---------|-------7---------|-----------------|-----------------| 
Db|-7-----------7---|-5-----------5---|-3---------------|-----------------| 
Ab|-----------------|-----------------|-------3---------|-------------2---| 
Eb|-----------------|-----------------|-------------1~--|---------1-------| 

    1 + 2 + 3 + 4 +   1   + 2 + 3 + 4 +   1 + 2 + 3 + 4  +    1 + 2 + 3 + 4  + 
Gb|-----------------|-------------------|-------------------|-10---------------| 
Db|-----------------|-------------------|-------------10h12-|-------------10\--| 
Ab|-3~--------------|-/10---------\-3/--|-8---------8-------|------------------| 
Eb|-----------------|-------------------|-------------------|------------------| 

    1 + 2 + 3 + 4 +   1  + 2 +  3 +  4 +   1 + 2 + 3 + 4 +   1 + 2 + 3 + 4 + 
Gb|-------9---------|-------------12------|-----------------|----------------| 
Db|-7-----------7---|--------12-----------|-----------------|----------------| 
Ab|-----------------|-10---------------10-|-8---------------|----------------| 
Eb|-----------------|---------------------|-------8-----1~--|--------1---3---| 

    1 + 2 + 3 + 4 +   1 + 2 + 3 + 4 +   1 + 2 + 3 +  4 +   1  +  2 + 3  + 4 + 
Gb|-----------------|-----------------|------------------|-------------------| 
Db|-----------------|-----------------|------------------|----------15-------| 
Ab|-------7---------|-------5---------|--------------8---|---/15-------------| 
Eb|-5-----------5---|-3-----------3---|-1-/--------------|-------------------| 

2nd Pre-Chorus 
    1 + 2 + 3 + 4 +   1 + 2 + 3 + 4 +   1 + 2 + 3 + 4 +   1 + 2 + 3 + 4 + 
Gb|-----------------|---------5-------|-----------------|-----------------| 
Db|-------------3---|---3---3---3-----|-----------------|-----------------| 
Ab|-0-0-0-0-0-------|-----3-------3---|-3-3-3-3-3-------|---------------0-| 
Eb|-----------------|---------------1-|-------------3---|---3-3-3-3-3-3---| 

    1 + 2 + 3 + 4 +   1 + 2 + 3 + 4 +   1 + 2 + 3 + 4 +   1  +  2  +  3  + 4 + 
Gb|-----------------|---------5-------|-----------------|----------------------| 
Db|-------------3---|---3---3---3-----|-----------------|----------------------| 
Ab|-0-0-0-0-0-------|-----3-------3---|-3-3-3-3-3-------|-17-17-17-15-15-------| 
Eb|-----------------|---------------1-|-------------3/--|----------------------| 

    1 + 2 + 3 + 4 +   1 + 2 + 3 + 4 +   1 + 2 + 3 + 4 +    1 + 2 + 3 + 4 + 
Gb|-----------------|-----------------|------------------|-----------------| 
Db|-2---2-2-2---2-3-|---3---3---3-----|------------------|-----7-5---5-----| 
Ab|---2-------2-----|-----3-------3---|-----------5------|-------------7---| 
Eb|-----------------|-----------------|-3-3-3-3-3---3-/5-|---5-------------| 

    1 + 2 + 3 + 4 +   1 + 2 + 3 + 4 +   1 + 2 + 3 + 4 +    1  +  2  +  3  +  4   + 
Gb|-----------------|-----------------|-----------------|-----12-12-12-12-12-12\---| 
Db|-4-0-4---4-0-4-4-|-3-3---3---3-----|-5---5-5-5-5-5-5-|-/12----------------------| 
Ab|-----------------|-----3-------3---|-----------------|--------------------------| 
Eb|-----------------|-----------------|-----------------|--------------------------| 

    1 + 2 + 3 + 4 +   1 + 2 + 3 + 4 +  
Gb|-----------------|-----------------| 
Db|-----------------|---5-5-5-5-------| 
Ab|-----------------|-5---------------| 
Eb|-3---3-3-3-3-3-3-|-----------------| 

2nd Chorus 
    1 + 2 + 3 + 4 +   1 + 2 + 3 + 4 +   1 + 2 + 3 + 4 +    1 +  2  +  3  +  4  + 
Gb|-----------------|-----------------|------------------|------------------------| 
Db|-----------------|-----------------|------------------|------------------------| 
Ab|-0---0-0-0-0-0-8-|---8-8-8-8-8-8-8-|---------------10-|---10-10-10-10-10-10-10-| 
Eb|-----------------|-----------------|-8---8-8-8-8-8----|------------------------| 

    1 + 2 + 3 + 4 +   1 + 2 + 3 + 4 +   1  + 2  +  3  +  4   +   1 + 2 + 3 + 4 + 
Gb|-----------------|-----------------|------------------------|-----------------| 
Db|-7---7-7-7-5-----|-----------------|------------------------|-----------------| 
Ab|-------------7-8-|---8-8-8-8-8-8-8-|-10---10-10-10-10-10\---|-------3---2-3-3-| 
Eb|-----------------|-----------------|----------------------3-|-----3-----------| 

    1 + 2 + 3 + 4 +   1 + 2 + 3 + 4 +   1 + 2 + 3 + 4 +    1 +  2  +  3  +  4  + 
Gb|-----------------|-----------------|------------------|-----------------------| 
Db|-----------------|-----------------|------------------|-----------------------| 
Ab|-0---0-0-0-0-0-8-|---8-8-8-8-8-8-8-|-----------7-8-10-|---10-10-10-10-10-10\--| 
Eb|-----------------|-----------------|-8---8-8-8--------|-----------------------| 

    1 + 2 + 3 + 4 +   1 + 2 + 3 + 4 +   1 + 2 + 3 + 4 +    1  +  2  +  3  +  4  + 
Gb|-----------------|-----------------|------------------|------------------------| 
Db|-----------------|-----------------|------------------|------------------------| 
Ab|-0---0-0-0-0-0-8-|---8-8-8-8-8-8-8-|------------------|----15-15-15-15-15-15\--| 
Eb|-----------------|-----------------|-8---8-8-8-8-8-8/-|-15---------------------| 

    1 + 2 + 3 + 4 +   1 + 2 + 3 + 4 +   1 + 2 + 3 + 4 +    1 + 2 + 3 + 4 + 
Gb|-----------------|-----------------|-----------------|-----------------| 
Db|-----------------|-----------------|-----------------|-----------------| 
Ab|---------------2-|---2---2---2---2-|-3~--------------|-(3)-------------| 
Eb|-5-0-5-5-5-0-5---|-----3-------3---|-----------------|-----------------| 


bridge 
(bass silent for 16 measures) 
    1 + 2 + 3 + 4 +   1 + 2 + 3 + 4 +   1 + 2 + 3 + 4 +   1 + 2 + 3 + 4 + 
Gb|-----------------|-----------------|-----------------|-----------------| 
Db|-----------------|-----------------|-----------------|-----------------| 
Ab|-----------------|-----------------|-2~--------------|-3~----------3h5-| 
Eb|-5~--------------|---------5-0-3-5-|-------------3---|-----------------| 

    1 + 2 + 3 + 4 +   1 + 2 + 3 + 4 +   1 + 2 + 3 + 4 +   1 + 2 + 3 + 4 + 
Gb|-----------------|-----------------|-----------------|-----------5-----| 
Db|-2~--------------|-----------------|-----------------|-------5-5---5---| 
Ab|-------------3---|-----------------|-----------------|-3---3-----------| 
Eb|-----------------|-0~--------------|-3~--------------|-----------------| 

    1 + 2 + 3 + 4 +    1  + 2  +  3 +  4  +    1 + 2 + 3 + 4 +   1 + 2 + 3 + 4 + 
Gb|-----------------|------------------------|-----------------|-------5-5-------| 
Db|-----------------|----------10------------|-----------------|-----------7-5---| 
Ab|-0~--------------|-/12-----------12-10----|-----------------|-3---------------| 
Eb|-----------------|---------------------12-|-7~----------3---|-----------------| 

    1 + 2 + 3 +  4  +    1  + 2 + 3 + 4 +   1 + 2  +  3  +  4 +  1 + 2 + 3 + 4 + 
Gb|--------------------|------------------|--------------12\---|-----------------| 
Db|--------------------|-14\------3-----0-|-5-----/12-12-------|-------5-----5---| 
Ab|-7~------7/15-15/17-|--------------3---|--------------------|-----5-----5-----| 
Eb|--------------------|------------------|--------------------|-3-3-------------| 

    1 + 2 + 3 + 4 +   1 + 2 + 3 + 4 +   1 + 2 + 3 + 4 +   1 + 2 + 3 + 4 + 
Gb|-----------------|-----------------|-----------------|---------5-2-----| 
Db|-----------------|-----------------|-.---.---.---.---|-.---.-------5-2-| 
Ab|-.---.---.---.---|-.---.-----------|-3---3---3---3---|-3---3-----------| 
Eb|-5---5---5---5---|-5---5---5-0-3-5-|-----------------|-----------------| 

    1 + 2 + 3 + 4 +   1 + 2 +  3  +  4 +    1 + 2 + 3 + 4 +   1 + 2 + 3 +  4  + 
Gb|-.---.---.---.---|-.-----------10-9-10-|-----------------|--------------10---| 
Db|-3---3---3---3---|-3---3-3-/10---------|-----------------|---------9-10------| 
Ab|-----------------|---------------------|-----------------|-----8-------------| 
Eb|-----------------|---------------------|-1~--------------|-7-8---------------| 

    1 + 2 +  3  +  4 +    1 + 2 + 3 + 4 +    1  +  2  +  3  +  4 +    
Gb|--------------------|------------------|-/15-15-15-15-15-15-15\-|-------------------------| 
Db|----------------8~--|-(8)--------------|------------------------|-------------------------| 
Ab|-8---8-10----10-----|------------------|------------------------|-13--13--13--13--13--13--| 
Eb|---8------10--------|------------------|------------------------|-------------------------| 

3rd Chorus 
    1 + 2 + 3 + 4 +   1 + 2 + 3 + 4 +   1 + 2 + 3 + 4 +   1 + 2 + 3 + 4 + 
Gb|-----------------|-----------------|-----------------|-----------------| 
Db|---------------3-|---3-3-3-3-3-3-3-|---------------5-|---5-5-5-5-5-5h7-| 
Ab|-0---0-0-0-0-0---|-----------------|-3---3-3-3-3-3---|-----------------| 
Eb|-----------------|-----------------|-----------------|-----------------| 

    1 + 2 + 3 + 4 +   1 + 2 + 3 + 4 +   1 + 2 + 3 + 4  +    1 +  2  + 3  +  4  + 
Gb|-----------------|-----------------|-------------------|----------------------| 
Db|-7---7-7-7-5-----|-----------------|-------------------|----------------------| 
Ab|-------------7-8-|---8-8-8-8-8-8\--|-------------------|------15-15---15-15---| 
Eb|-----------------|-----------------|-3---3-3-3-3-3-/15-|---15-----------------| 

    1 + 2 + 3 + 4 +   1 + 2 + 3 + 4 +   1 + 2 + 3 + 4 +    1 +  2  +  3  +  4  + 
Gb|-----------------|-----------------|------------------|-----------------------| 
Db|-----------------|-----------------|------------------|-----------------------| 
Ab|-0---0-0-0-0-0-8-|---8-8-8-8-8-8-8-|-----------7-8-10-|---10-10-10-10-10-10\--| 
Eb|-----------------|-----------------|-8---8-8-8--------|-----------------------| 

    1 + 2 + 3 + 4 +   1 + 2 + 3 + 4 +   1 + 2 + 3 + 4 +    1  +  2  +  3  +  4  + 
Gb|-----------------|-----------------|------------------|------------------------| 
Db|-----------------|-----------------|------------------|------------------------| 
Ab|-0---0-0-0-0-0-8-|---8-8-8-8-8-8-8-|------------------|----15-15-15-15-15-15\--| 
Eb|-----------------|-----------------|-8---8-8-8-8-8-8/-|-15---------------------| 

    1 + 2 + 3 + 4 +   1 + 2 + 3 + 4 +   1 + 2 + 3 + 4 +    1 + 2 + 3 + 4 + 
Gb|-----------------|-----------------|-----------------|-----------------| 
Db|-----------------|-------------5---|-----------------|-----------------| 
Ab|-----------------|-2-2---2-2-5---5-|-3~--------------|-(3)-------------| 
Eb|-5-0-5-5-5-0-5-5-|-----3-----------|-----------------|-----------------| 

end 
    1 + 2 + 3 + 4 +   1 + 2 + 3 + 4 +   1 + 2 + 3 + 4 +   1 + 2 + 3 + 4 + 
Gb|-----------------|-----------------|-----------------|-----------------| 
Db|-----------------|-----------------|-----------------|-----------------| 
Ab|-----------------|-----------------|-----------------|-----------------| 
Eb|-5-5-5-1-1-1-3-3-|-3-3-3-3-3-3-1-3-|-5-5-5-1-1-1-3-3-|-3-3-3-3-3-3-3-3-| 

    1 + 2 + 3 + 4 +   1 + 2 + 3 + 4 +   1 + 2 + 3 + 4  +   1 + 2  +  3  + 4 + 
Gb|-----------------|-----------------|------------------|--------------------| 
Db|-----------------|-----------------|------------------|-----------17\------| 
Ab|-----------------|-----------------|-8-8-8-7-7-7-10---|----/17-------------| 
Eb|-5-5-5-1-1-1-3-3-|-3-3-3-3-3-3-3/--|------------------|--------------------| 


    1 + 2 + 3 + 4 +   1 + 2 + 3 + 4 +    
Gb|-----------------|------------------|----------------| 
Db|-----------------|------------------|----------------| 
Ab|-----------------|-------------2-3~-|-(3)------------| 
Eb|-1~--------------|------------------|----------------| 

************************************ 

|  ~  Vibrato/let ring 
|  /  Slide up 
|  \  Slide down 
| (n) Ghost note 
|  h  Hammer-on 
|  p  Pull-off 

************************************ 
		  

See also:

bass Asian Kung-fu Generation - Resonnance bass Radwimps - Zen Zen Zense
e-chords

Other versions:

bass Radwimps - Zen Zen Zense
auto scroll beats size up size down change color hide chords drawings
tab show chords e-chords YouTube Clip e-chords hide all tabs e-chords go to top tab

share with facebook