O Rappa

Reza Vela Bass Tab

O Rappa

Difficulty: nolevelnolevel

by MoRtE%2D

tuner correct add songbook print version text version save to e-mail
chordsukuleleukulelecavacokeyboardtabbassdrumsharmonicsflute Guitar Pro
close

there isn't a video lesson for this song

request
chords

Reza Vela

Year: 2005 - Album: O Rappa Acústico Mtv - Cd Duplo

  		INTRO: 
G|-----------------------------| 
D|--------------4--------------| 
A|-----4--2-4-2---2------------| 
E|-2-2--------------2--2-2-----| 
 "A"            <---várias  vezes---> 
G|-------------|---------------------| 
D|-------------|---------------------| 
A|-7-9-7-9-----|-4--4/7-7-9-7-9------| 
E|---------2-2-|-----------------2-2-| 
  
 "B"            <---várias  vezes---> 
G|-------------|---------------------| 
D|-------------|---------------------| 
A|-7-9-7/9-----|-0-0-2-2-/5-7-9-9----| 
E|---------2-2-|-----------------2-2-| 
 "C" 
G|-------------| 
D|--4----------| 
A|-------------| 
E|----2-2------| 
Ix2 
20xA 
4xB 
8xA 
4xC 
4xB 
10xA 
Silêncio 
4xa 
8xb 
I 
	  

Search Paypal
auto scroll beats size up size down change color hide chords drawings
tab show chords e-chords YouTube Clip e-chords hide all tabs e-chords go to top tab

share with facebook