Naruto

home > Naruto

Haruka Kanata (2ª Abertura) Bass Tab

Naruto

Difficulty: BeginnerBeginner

by nanddo7

tuner correct add songbook print version text version save to e-mail
chordsukulelecavacokeyboardtabbassdrumsharmonicsflute Guitar Pro
chords

Haruka Kanata (2ª Abertura)

  		Haruka Kanata 

G|-99---99---99---99-|-6--6--6-6-6-4--4-4--4-4-4-4-----111111--13-13-11-11----| 
D|-99---99---99---99-|-6--6--6-6-6-4--4-4--4-4-4-4-7-7-111111--13-13-11-11--2-| 
A|-77---77---77---77-|-4--4--4-4-4-2--2-2--2-2-2-2-7-7-9-9-9---11-11-9--9---2-| 
E|-------------------|-----------------------------5-5----------------------0-| 

e|-------------------|--------------------------|---------------| 
B|-2-0--2-0--2-4-2-0-|-2-0--2-0--2-0--5-7/9-5-5-|-7-7/9-7-5-4-5-| 
Fumikomuze akuseru kake hiki wa naisa sou dayo! Yoru wo nukeru 

e|-------------------|--------------------------|---------------| 
B|-2-0--2-0--2-4-2-0-|-2-0--2-0--2-0--5-7/9-5-5-|-7-7/9-7-5-4-5-| 
Nejikomu sa saigo ni sashihiki zero sa sou dayo! Hibi wo kezuru 

e|-------------|-------------|---------------| 
B|-2-2-2-4-5-2-|-2-2-2-4-5-2-|-2-2-4-5-2-7/9-| 
Kokoro wo sotto hiraite gyutto hiki yosetara 

e|-------------|-----------------------| 
B|-2-2-2-4-5-2-|-2-2-2-4-5-2-2/5---5/9-| 
Todokuyo kitto tsutau yo motto sa aa 

G|----------4-4-4-4--6-6-6-6----------|----------4-4-4-4--6-6-6-6----------| 
D|-2-2-2-2--4-4-4-4--6-6-6-6--7-7-7-7-|-2-2-2-2--4-4-4-4--6-6-6-6--7-7-7-7-| 
A|-2-2-2-2--2-2-2-2--4-4-4-4--7-7-7-7-|-2-2-2-2--2-2-2-2--4-4-4-4--7-7-7-7-| 
E|-0-0-0-0--------------------5-5-5-5-|-0-0-0-0--------------------5-5-5-5-| 

e|-----------|-------------| 
B|-5-5-5-7/9-|-5-5-5-5-7/9-| 
Iki isoide shiboritotte 

e|-------------|---------------|-----------------| 
B|-5-7-9-9-7-5-|-5-5-7-9-9-7-5-|-5-7-5-7/9-9-7-9-| 
Motsureru ashi dakedo mae yori zutto sou tokue 

e|-------------|-------------| 
B|-5-5-5-5-7/9-|-5-5-5-5-7/9-| 
Ubaitotte tsukandatte 

e|---------------|---------------|----------------------------------| 
B|-5-5-7-9-9-7-5-|-5-5-7-9-9-7-5-|-5-5-7-5--5-5--5-5--5-5-5-7-9-9-9-| 
Kimi ja nai nara imi wa naniosa Dakara motto motto motto haruka kanata 

G|-99---99-| 
D|-99---99-| 
A|-77---77-| 
E|---------| 

e|-------------------|--------------------------|---------------| 
B|-2-0--2-0--2-4-2-0-|-2-0--2-0--2-0--5-7/9-5-5-|-7-7/9-7-5-4-5-| 
Fumikomuze akuseru kake hiki wa naisa sou dayo! Yoru wo nukeru 

e|-------------------|--------------------------|---------------| 
B|-2-0--2-0--2-4-2-0-|-2-0--2-0--2-0--5-7/9-5-5-|-7-7/9-7-5-4-5-| 
Nejikomu sa saigo ni sashihiki zero sa sou dayo! Hibi wo kezuru 

e|-------------|-------------|---------------| 
B|-2-2-2-4-5-2-|-2-2-2-4-5-2-|-2-2-4-5-2-7/9-| 
Kokoro wo sotto hiraite gyutto hiki yosetara 

e|-------------|-----------------------| 
B|-2-2-2-4-5-2-|-2-2-2-4-5-2-2/5---5/9-| 
Todokuyo kitto tsutau yo motto sa aa 

G|----------4-4-4-4--6-6-6-6----------|----------4-4-4-4--6-6-6-6----------| 
D|-2-2-2-2--4-4-4-4--6-6-6-6--7-7-7-7-|-2-2-2-2--4-4-4-4--6-6-6-6--7-7-7-7-| 
A|-2-2-2-2--2-2-2-2--4-4-4-4--7-7-7-7-|-2-2-2-2--2-2-2-2--4-4-4-4--7-7-7-7-| 
E|-0-0-0-0--------------------5-5-5-5-|-0-0-0-0--------------------5-5-5-5-| 

e|-------------|-------------| 
B|-5-5-5-5-7/9-|-5-5-5-5-7/9-| 
Iki isoide shiboritotte 

e|-------------|---------------|-------------------| 
B|-5-7-9-9-7-5-|-5-5-7-9-9-7-5-|-5--7--5-7/9-9-7-9-| 
Motsureru ashi dakedo mae yori zutto sou tokue 

e|-------------|------------| 
B|-5-5-5-5-7/9-|-5-5-5-5--9-| 
Ubaitotte tsukandatte 

e|---------------|---------------|-----------|------------------| 
B|-5-5-7-9-9-7-5-|-5-5-7-9-9-7-5-|-5-5-7-7/9-|-5-5--7-7/9-7-5-5-| 
Kimi ja nai nara imi wa naniosa Dakara, haruka kanata! 
	  

Search Paypal
auto scroll beats size up size down change color hide chords drawings
tab show chords e-chords YouTube Clip e-chords hide all tabs e-chords go to top tab