Millie Jackson

My Man Is A Sweet Man

Millie Jackson

bass nolevel nolevel

by  CARLLUZ

save to print version add songbook text version e-mail correct tuner
chordsukulelecavacokeyboardtabbassdrumsharmonicaflute Guitar Pro
close

there isn't a video lesson for this song

chords

My Man Is A Sweet Man

	  		
Intro: 
G|---------------------------------------------------------| 
D|-----1-1-------1---1-----1---------1-1-------1---1-----1-| 
A|-1-3-----3-1-3-------1-3-------1-3-----3-1-3-------1-3---| 
E|---------------------------------------------------------| 

G|---------------------------------------------------------------------| 
D|-1--1--------1--1-----1---1-------1-------1--1--1--------1--1--1-----| 
A|------3-1-3-------1-3------3-1-3---3-1-3----------3-1-3----------3-1-| 
E|---------------------------------------------------------------------| 

G|-------------| 
D|-1--1--1-----| 
A|---------3-1-| 
E|-------------| 

Chorus 1: 
G|-------------------------------------------------------------------| 
D|-1--1--1-1-------------------1---1---1---------1---1-1---1---1-1---| 
A|-----------3-3--1--3--1--3-----3---3---3--1-3----3-----3---3-----3-| 
E|-------------------------------------------------------------------| 

G|------------------------| 
D|-1-----1-----1-----1----| 
A|--1-3---1-3---1-3---1-3-| 
E|------------------------| 

verse 1: 
G|----------------------------------------------------------------------| 
D|-1--1--1-------1--1--1------1--1--1-------1--1--1-----1---1---1---1---| 
A|---------3-1-3--------3-1-3---------3-1-3---------3-1---3---3---3---3-| 
E|----------------------------------------------------------------------| 

G|---------------------------| 
D|-1--1--1-----1--1--1-------| 
A|---------1-3---------3-1-1-| 
E|---------------------------| 

Chorus 2: 
G|------------------------------------------------------| 
D|-1---1---1--------1---1---1--------3---3---3--3-----1-| 
A|---3---3---3-1-3----3---3---3-1-3----3---3------1-3---| 
E|------------------------------------------------------| 

G|-----------------------| 
D|-1----1----1----1------| 
A|--3-1--3-1--3-1--3-1-3-| 
E|-----------------------| 

verse 2: 
G|----------------------------------------------------------------------| 
D|-1--1--1-------1--1--1------1--1--1-------1--1--1-----1---1---1---1---| 
A|---------3-1-3--------3-1-3---------3-1-3---------3-1---3---3---3---3-| 
E|----------------------------------------------------------------------| 

G|---------------------------| 
D|-1--1--1-----1--1--1-------| 
A|---------1-3---------3-1-1-| 
E|---------------------------| 

Chorus 2: 
G|------------------------------------------------------| 
D|-1---1---1--------1---1---1--------3---3---3--3-----1-| 
A|---3---3---3-1-3----3---3---3-1-3----3---3------1-3---| 
E|------------------------------------------------------| 

G|-----------------------| 
D|-1----1----1----1------| 
A|--3-1--3-1--3-1--3-1-3-| 
E|-----------------------| 

Interlude: 
G|------------------------------------------------------| 
D|-1---1---1--------1---1---1--------3---3---3--------1-| 
A|---3---3---3-1-3----3---3---3-1-3----3---3---3--1-3---| 
E|------------------------------------------------------| 

G|-----------------------| 
D|-1----1----1----1------| 
A|--3-1--3-1--3-1--3-1-3-| 
E|-----------------------| 

verse 3: 
G|----------------------------------------------------------------------| 
D|-1--1--1-------1--1--1------1--1--1-------1--1--1-----1---1---1---1---| 
A|---------3-1-3--------3-1-3---------3-1-3---------3-1---3---3---3---3-| 
E|----------------------------------------------------------------------| 

G|---------------------------| 
D|-1--1--1-----1--1--1-------| 
A|---------1-3---------3-1-1-| 
E|---------------------------| 

Chorus 3 & Outro:  (Repeat To Fade) 
G|------------------------------------------------------| 
D|-1---1---1--------1---1---1--------3---3---3--------1-| 
A|---3---3---3-1-3----3---3---3-1-3----3---3---3--1-3---| 
E|------------------------------------------------------| 

G|-----------------------| 
D|-1----1----1----1------| 
A|--3-1--3-1--3-1--3-1-3-| 
E|-----------------------| 
		  

See also:

bass Deep Purple - When a Blind man cries bass Deep Purple - Smoke On The Water bass Deep Purple - Ted The Mechanic bass Deep Purple - Smoke On The Waterr bass Deep Purple - Into The Fire bass Deep Purple - Smoke On The Water (ver. 2)
e-chords

Other versions:

bass Millie Jackson - My Man Is A Sweet Man
auto scroll beats size up size down change color hide chords drawings
tab show chords e-chords YouTube Clip e-chords hide all tabs e-chords go to top tab

share with facebook