Metallica

home > Metallica

For Whom The Bell Tolls (versão 2) Bass Tab

Metallica

Difficulty: ExpertExpert

by eduardo%5Flyvio

tuner correct add songbook print version text version save to e-mail
chordsukulelecavacokeyboardtabbassdrumsharmonicsflute Guitar Pro
chords

For Whom The Bell Tolls (versão 2)

	  Intro 
                                                   / 3 \  / 3 \ 
            w                              q       e e e  e e e 
G+---+--------------------------------+-----------------------------------+ 
D|-4-|------R-------------------------|----R-----------R------R-----------| 
A|-4-|--------------------------------|-----------------------------------| 
E+---+--------------------------------+------------2-2----2-2-------------+ 
 
                                                             
     q  e  e  e  q   s  s                                      
G+-----19-18-17-16-----------------------+- 
D|*------------------17--16---------------| 
A|*--------------------------17--16-------| 
E+---0------------------------------------- 
 
      e e e e  e e e e                     e e e e  e e e e 
G+------------------------------------+-----------------------------------+ 
D|*-----------------------------------|-----------------------------------| 
A|*-----------------------------------|-------------------0---------------| 
E+----0-3-2-1--0-3-2-1----------------+----0-3-2-1--0-2-3-----------------| 
 
      e e e e  e e e e                     e e e e  e e e e              4 
G+------------------------------------+-----------------------------------+ 
D|------------------------------------|----------------------------------*| 
A|------------------------------------|-------------------2--------------*| 
E+----0-3-2-1--0-3-2-1----------------+----0-3-2-1--0-2-3-----------------| 
 
      w                                     +w 
G+------------------------------------+-----------------------------------+ 
D|------------------------------------|-----------------------------------| 
A|------------------------------------|-----------------------------------| 
E+----0-------------------------------+-----(0)---------------------------| 
enviado por Jefferson ( [email protected]) Bass Fig.1 
 
         / 3 \    / 3 \                       / 3 \    / 3 \ 
      q  e e e  q  e e e                   q  e e e  q  e e e 
G+------------------------------------+------------------------------------+ 
D|*-----------------------------------|------------------------------------| 
A|*-----------------------------------|------------------------------------| 
E+----0--0-0-0--0--0-0-0--------------+----0--0-0-0--0--0-0-0--------------+ 
 
         / 3 \    / 3 \ 
      q  e e e  q  e e e                   q      q 
G+------------------------------------+-----------------------------------+ 
D|------------------------------------|-------R---------------------------| 
A|------------------------------------|-----------------------------------| 
E+----3--3-3-3--3--3-3-3--------------+----3-----12\----------------------| 
 
 
         / 3 \    / 3 \                       / 3 \    / 3 \ 
      q  e e e  q  e e e                   q  e e e  q  e e e 
G+------------------------------------+------------------------------------+ 
D|------------------------------------|------------------------------------| 
A|------------------------------------|------------------------------------| 
E+----0--0-0-0--0--0-0-0--------------+----0--0-0-0--0--0-0-0--------------+ 
 
         / 3 \    / 3 \               ---     / 3 \     / 3 \           --- 
      q  e e e  q  e e e              |1.  q  e e e  q  e e e             | 
G+------------------------------------+-----------------------------------+ 
D|------------------------------------|----------------------------------*| 
A|------------------------------------|----3--3-3-3--0--0-0-0------------*| 
E+----3--3-3-3--3--3-3-3--------------+-----------------------------------| 
 
 ---   / 3 \  / 3 \   / 3 \ 
 |2.   q   e  e   q   e e e    q 
G+------------------------------------+ 
D|------------------------------------| 
A|-----3---3--3---3---0-0-0---12\-----| 
E+------------------------------------+ 
 
 
 Bass Fig.2 
 
      / 3 \     / 3 \                      / 3 \  /3\ 
      e e e  q  e e e  q                   e e e  q e q q 
G+------------------------------------+------------------------------------+ 
D|*-----------------------------------|------------------------------------| 
A|*-----------------------------------|------------------------------------| 
E+----0-0-0--3--0-0-0--5--------------+----0-0-0--3-0-6-2------------------+ 
 
      / 3 \     / 3 \                      / 3 \  / 3 \  / 3 \ 
      e e e  q  e e e  q                   e e e  e e e  q q q 
G+------------------------------------+------------------------------------+ 
D|------------------------------------|-----------------------------------*| 
A|------------------------------------|-----------------------------------*| 
E+----0-0-0--3--0-0-0--5--------------+----0-0-0--3-0-0--6-2-1-------------+ 
 
 
 Interlude 
 
         / 3 \    / 3 \                       / 3 \    / 3 \ 
      q  e e e  q  e e e                   q  e e e  q  e e e 
G+------------------------------------+------------------------------------+ 
D|*-----------------------------------|------------------------------------| 
A|*-----------------------------------|------------------------------------| 
E+----0--0-0-0--0--0-0-0--------------+----0--0-0-0--0--0-0-0--------------+ 
 
         / 3 \                                / 3 \    / 3 \ 
      q  e e e  q    q                     q  e e e  q  e e e 
G+------------------------------------+------------------------------------+ 
D|------------------------------------|------------------------------------| 
A|------------------------------------|------------------------------------| 
E+----0--0-0-0--0--/12\---------------+----3--3-3-3--3--3-3-3--------------+ 
 
         / 3 \    / 3 \               ---     / 3 \    / 3 \ 
--- 
      q  e e e  q  e e e              |1.  q  e e e  q  e e e 
| 
G+------------------------------------+------------------------------------+ 
D|------------------------------------|-----------------------------------*| 
A|------------------------------------|----2--2-2-2--2--2-2-2-------------*| 
E+----0--0-0-0--0--0-0-0--------------+------------------------------------+ 
 
 ---      / 3 \ 
 |2.   q  e e e  q  q 
G+------------------------------------+ 
D|------------------------------------| 
A|-----2--2-2-2--2--2\----------------| 
E+------------------------------------+ 
 
 
 Outro 
          /3\               /3\               /3\ 
      h   q h            h  q h               q h        8 
G+------------------+------------------+-+----------------+ 
D|*-----------------|------------------|2|---------------*| 
A|*-----------------|------------------|4|---------------*| 
E+----0---2-2-------+----0--2-2--------+-+----3-3---------+ 
 
 
 
 The order of the parts : 
   Intro 
   Bass Fig.1 
   Bass Fig.2 
   Bass Fig.1 
   Bass Fig.2 X 2 
   Interlude 
   Bass Fig.1 
   Bass Fig.2 X 2 
   Outro 
 

	  

there isn't a video lesson for this song

request
Search
auto scroll beats size up size down change color hide chords drawings
tab show chords e-chords YouTube Clip e-chords hide all tabs e-chords go to top tab