Ludwig van Beethoven

Minuet And Trio

Ludwig van Beethoven

bass

by  TARIKIKE

save to print version add songbook text version e-mail correct tuner
chordsukulelecavacokeyboardtabbassdrumsharmonicaflute Guitar Pro
close

there isn't a video lesson for this song

chords

Minuet And Trio

	  		G|-------------------------------------5-----5-4-5-4--|--5--------5-------------| 
D|-3-2-3-2--3--3-----3--3-2-3-2--3--3-----------------|-----3--------2--3--5----| 
A|----------------0-----------------------0-----------|--------0----------------| 
E|----------------------------------------------------|-------------------------| 
   f e f e  f  f  a  f  f e f e  f  f  c  a  c b c b     c  f  a  c  e  f  g 

G|-4-5----4-----------------------------------------------5--|-----5-4-5-4------| 
D|-----------5--3-2-3-2--3--3-----3--3-2-3-2--3--3--3--3-----|------------------| 
A|------0----------------------0-----------------------------|--0---------------| 
E|-----------------------------------------------------------|------------------| 
   b c  a b  g  f e f e  f  f  a  f  f e f e  f  f  f  f  c     a  c b c b  

G|-5--------5-----------4-5-----4-----5-4-5-4--5--5--|--5--5-6-5-6--5--5--5--5--| 
D|----3--------2--3--5-------------5-----------------|--------------------------| 
A|-------0-------------------0-----------------------|--------------------------| 
E|---------------------------------------------------|--------------------------| 
   c  f  a  c  e  f  g  b c  a  b  g  c b c b  c  c     c  c d c d  c  c  c  c 

G|----------------5--------5--4--------------|----------------------------------| 
D|-3-2-3-2--3--------3-------------5-3-2--3--|------3--2--3-3----5--0-----------| 
A|-------------0--------0--------0-----------|---3-------------0------3---------| 
E|-------------------------------------------|----------------------------------| 
   f e f e  f  a  c  f  a  c  b  a g f e  f      c  f  e  f f  a g  d c 

G|-------------------------------------4----4-5--|--4---------------------------| 
D|-3--3-2--3-5-----3--3-2--3-5--2----------------|-------5-3--2-3--5--5--5----3-| 
A|--------------3------------------3-----0-------|----0--------------------0----| 
E|-----------------------------------------------|------------------------------| 
   f  f e  f g  c  f  f e  f g  e  c   b a   b c     b a g f  e f  g  g  g a  f 

G|------------------------------------------|--4----4-5--4----------------------| 
D|---------------------3--3-3--3-3--3-3--0--|-----------------5-3--2-3--5--5----| 
A|-0-0--0-0--0-0--0-0-----------------------|-----0--------0--------------------| 
E|------------------------------------------|-----------------------------------| 
   a a  a a  a a  a a  f  f f  f f  f f  d     b  a b c  b a  g f  e f  g  g 

G|------------------------------------------------------------------------------| 
D|-5----3-----------------------------------------------------------------------| 
A|---0--------------------------------------------------------------------------| 
E|------------------------------------------------------------------------------| 
   g a  f 

I made this for a school audition since I'm only now learning how to read bass sheet music so sorry if it's  
confusing. Not that you're using it anyways but still. 
		  

See also:

bass Ludwig van Beethoven - Minuet And Trio
e-chords

Other versions:

bass Ludwig van Beethoven - Minuet And Trio
auto scroll beats size up size down change color hide chords drawings
tab show chords e-chords YouTube Clip e-chords hide all tabs e-chords go to top tab

share