Korn

home > Korn

Itīs Gonna Go Away Bass Tab

Korn

Difficulty: nolevelnolevel

by meta11eir0

tuner correct add songbook print version text version save to e-mail
chordsukulelecavacokeyboardtabbassdrummharmonicsflute Guitar Pro
chords

Itīs Gonna Go Away

  		Korn 
It's Gonna Go Away 
 
Intro/Verso 
F|----------------| 
C|----------------| 
G|------------1/2-| 
D|-0-2--1-0--0----| 
A|----------------| 
 
Final 
F|------------------------| 
C|------------------------| 
G|------------1/2---------| 
D|-0-2--1-0--0-----0~--22-| 
A|------------------------| 
 
Simples. hehe. 

	  

Search Paypal
auto scroll beats size up size down change color hide chords drawings
tab show chords e-chords YouTube Clip e-chords hide all tabs e-chords go to top tab