King Gizzard & The Lizard Wizard

The Castle In The Air Bass Tab

King Gizzard & The Lizard Wizard

Difficulty: nolevelnolevel

by bombaXXX

tuner correct add songbook print version text version save to e-mail
chordsukulelecavacokeyboardtabbassdrumsharmonicsflute Guitar Pro
close

there isn't a video lesson for this song

request
chords

The Castle In The Air

  		
Intro 
G|------------------------------------------------| 
D|9-----------------------------------------------| 
A|------------------------------------------------| x6 
E|------------------------------------------------| 

Verse 
Rest until 0:55 

Chorus 
G|--------7-7-7-7-9-9-9-9-| 
D|9-9-9-9-----------------| 
A|------------------------| x2 
E|------------------------| 

Verse 
Rest until 1:15 

Chorus 
G|--------7-7-7-7-9-9-9-9-| 
D|9-9-9-9-----------------| 
A|------------------------| x2 
E|------------------------| 

G|------------------------| 
D|9--7-----------------7--| 
A|------7--5-----5--7-----| x4 
E|------------7-----------| 

Bridge 
G|--------| 
D|9-9-9-9-| 
A|--------| x6 
E|--------| 

G|--------| 
D|9-------| 
A|--------| 
E|--------| 

Rest until 2:25 
G|--------7-7-7-7-9-9-9-9-| 
D|9-9-9-9-----------------| 
A|------------------------| x4 
E|------------------------| 

G|9-------| 
D|--9-----| 
A|--------| 
E|--------| 
	  

Search Paypal
auto scroll beats size up size down change color hide chords drawings
tab show chords e-chords YouTube Clip e-chords hide all tabs e-chords go to top tab

share with facebook