Jota Quest

home > Jota Quest

Amor Maior Bass Tab

Jota Quest

Difficulty: ExpertExpert

by Timom

tuner correct add songbook print version text version save to e-mail
chordsukulelecavacokeyboardtabbassdrummharmonicsflute Guitar Pro
chords

Amor Maior

Year: 2003 - Album: MTV Ao Vivo

(Rogerio Fausino / W. Sideral / M. T. Lara / P. Diniz / P. Fonseca / M. Buzelin)

  		G||-----------------------|----------------------| 
D||*----------------------|----------------------| 
A||*----------------------|--0----0----0----0----| 
E||---1----1----1----1----|----------------------| 
 
 
                                              4x 
----------------------|-----------------------|| 
----------------------|----------------------*|| 
--5----5----5----5----|------------1----1----*|| 
----------------------|--3----3---------------|| 
 
 
                                              3x 
----------------------|-----------------------|| 
----------------------|----------------------*|| 
--1----1----0----0----|--5----5----3----3----*|| 
----------------------|-----------------------|| 
 
 
                                               
----------------------|----------------------| 
----------------------|----------------------| 
--1----1----0----0----|------------1----1----| 
----------------------|--3----3--------------| 
 
 
                                               
----------------------|----------------------| 
----------------------|----------------------| 
----------------------|--0----0----0----0----| 
--1----1----1----1----|----------------------| 
 
 
                                              4x 
----------------------|-----------------------|| 
----------------------|----------------------*|| 
--5----5----5----5----|------------1----1----*|| 
----------------------|--3----3---------------|| 
 
 
                                              3x 
----------------------|-----------------------|| 
----------------------|----------------------*|| 
--1----1----0----0----|--5----5----3----3----*|| 
----------------------|-----------------------|| 
 
 
                                                
----------------------|----------------------|| 
----------------------|----------------------|| 
--1----1----0----0----|------------1----1----|| 
----------------------|--3----3--------------|| 
	  

Search Paypal
auto scroll beats size up size down change color hide chords drawings
tab show chords e-chords YouTube Clip e-chords hide all tabs e-chords go to top tab