Jah Live

home > Jah Live

Mundo Perdido Bass Tab

Jah Live

Difficulty: nolevelnolevel

by Junior+Herbsman

tuner correct add songbook print version text version save to e-mail
chordsukulelecavacokeyboardtabbassdrumsharmonicsflute Guitar Pro
chords

Mundo Perdido

  		Introdução 
|-----------------------------------|---------------------------------| 
|-----------------------------------|---------------------------------| 
|--------8-7-5----------8-7-5---7-7-|5--7--5----7--7---5---5-5---3--5-| 
|5-5--5---------5-5--5--------------|--------5----7-------------------| 
 
|-------------------------| 
|7--5---------------------| 
|-----7-----8--5--7--5----| 
|-------5---------------8-| 
 
Canto 1 (Repete 2X) 
 
Pode Perguntar...                               Escutar o que quer... 
|-------------------------------------|----------|------|---------| 
|-------------------------------------|----------|------|7--5-----| 
|--------8-7-5----------8-7--7-7--7---|7-7?6-6?5-|5--3?5|------7--| 
|5-5--5---------5-5--5--------------7-|----------|------|--------5| 
 
                       Para melhorar nossa... 
|------|-------------|--------|------------------| 
|------|-------------|--------|------------------| 
|7--8-8|5--7--5------|--8--7?5|--------8?-7?7?-7-|  
|------|---------8--5|5-------|5-5?-5-----------7|  
 
Canto 2 
 
|------------------------------|------------| 
|------------------------------|------------| 
|--8-7-5---------8--7--7-7--7--|-7-7?6-6---5| 
|5--------5-5--5--------------7|------------| 
 
|----------------|-------------| 
|--------7--5----|------------7| 
|5--3--5------7--|8-8-7-7-8-10-| 
|---------------5|-----8-------| 
 
Canto 3 (Repete 2X) 
 
Se eu tivesse...                                     ...passar... 
|-------------------|------------|---------|--------|--------|  
|-------------------|------------|---------|3?2?0---|--3----5| 
|2-3--2-3-3-2-0-----|3-2-0-------|---------|-------5|-3----5-|  
|----------------3-3|-----3--2--1|0-(1)-(1)|--------|1----3--|  
 
 
Final 
 
|--------------------------------------| 
|--------------------------------------| 
|--8-7------------7-7--7----7-7?-6-6--5| 
|5------5-5--5--5--------7-------------| 
 
|---------------------------------------| 
|------7--5---------------5-7-(SLIDE)-0-| 
|5-3-5------7---8-8-7--5-7--------------| 
|-------------5-------------------------| 
 
 
() Quer dizer ?Seco? 
 

	  

Search Paypal
auto scroll beats size up size down change color hide chords drawings
tab show chords e-chords YouTube Clip e-chords hide all tabs e-chords go to top tab