Huey Lewis & The News

home > Huey Lewis & The N...

Do You Believe In Love Bass Tab

Huey Lewis & The News

Difficulty: nolevelnolevel

by bombaXXX

tuner correct add songbook print version text version save to e-mail
chordsukulelecavacokeyboardtabbassdrumsharmonicsflute Guitar Pro
chords

Do You Believe In Love

  		
Intro 
G|--------|--------------|-------------|---------------|-------------|----------------| 
D|--------|---2--2-1-----|-------------|---------------|-------------|-----2--2-1-----| 
A|-2------|----------4---|--2--2--2--2-|--2--2--2--2---|--2--2--2--2-|--2---------4-2-| 
E|--------|------------2-|-------------|-------------2-|-------------|----------------| 

Verse 
G|------------|--------------|------------|--------------|--------------|--------------|---------------------| 
D|------------|--------------|-1--1--1--1-|-1--1--1--1---|--------------|--------------|--------------2-2-1--| 
A|-2--2--2--2-|-2--2--2--2-4-|------------|------------2-|--------------|--------------|2--2--2--2--2------4-| 
E|------------|--------------|------------|--------------|-0--0--0--0-4-|-2--2--2--2-4-|--------------------2| 

G|------------|--------------|------------|--------------|--------------|--------------|--------|------------| 
D|------------|--------------|-1--1--1--1-|-1--1--1--1---|--------------|--------------|--------|------------| 
A|-2--2--2--2-|-2--2--2--2-4-|------------|------------2-|--------------|--------------|--2-----|------------| 
E|------------|--------------|------------|--------------|-0--0--0--0---|-2--2--2--2-4-|--------|-----0---2--| 


Chorus 
G|----------|----------|----------|--------|----------|----------|------|-------|-------|----------------| 
D|----------|----------|----------|--------|----------|----------|------|-------|-------|----------------| 
A|-2-2--1-1-|----------|-2-2--1-1-|------2-|-2-2--1-1-|----------|-4----|-------|-4-----|----------------| 
E|----------|-0-0--2-2-|----------|-0-0----|----------|-0-0--2-2-|------|-2-----|-------|-2-2-2-2-2------| 


2nd Verse 
G|------------|--------------|------------|--------------|--------------|--------------|---------------------| 
D|------------|--------------|-1--1--1--1-|-1--1--1--1---|--------------|--------------|--------------2-2-1--| 
A|-2--2--2--2-|-2--2--2--2-4-|------------|------------2-|--------------|--------------|2--2--2--2--2------4-| 
E|------------|--------------|------------|--------------|-0--0--0--0-4-|-2--2--2--2-4-|--------------------2| 

G|------------|--------------|------------|--------------|--------------|--------------|---------|-----------| 
D|------------|--------------|-1--1--1--1-|-1--1--1--1---|--------------|--------------|---------|-----------| 
A|-2--2--2--2-|-2--2--2--2-4-|------------|------------2-|--------------|--------------|-2-------|-----------| 
E|------------|--------------|------------|--------------|-0--0--0--0---|-2--2--2--2-4-|---------|----0---2--| 


2nd Chorus 
G|----------|----------|----------|--------|----------|----------|------|--------------|--------|--------| 
D|----------|----------|----------|--------|----------|----------|------|-4---11-9-8---|--------|--------| 
A|-2-2--1-1-|----------|-2-2--1-1-|------2-|-2-2--1-1-|----------|-4----|------------9-|--------|--------| 
E|----------|-0-0--2-2-|----------|-0-0----|----------|-0-0--2-2-|------|--------------|-9------|--------| 


Solo 
G|------------|--------------|------------|--------------|--------------|---------------|--------------| 
D|------------|--------------|-1--1--1--1-|-1--1--1--1---|--------------|---------------|--------------| 
A|-2--2--2--2-|-2--2--2--2-4-|------------|------------2-|--------------|---------------|-2--2--2--2---| 
E|------------|--------------|------------|--------------|-0--0--0--0-4-|-2--2--2--2-4--|------------2-| 

G|---------------| 
D|----2--2-1-----| 
A|-2---------4---| 
E|-------------2-| 


Bridge 
G|---------|---------|------------|------------|--------|--------|------------|------------------| 
D|---------|---------|------------|------------|--------|--------|------------|------------------| 
A|---------|---------|-2--2--2--2-|-2--2--2--2-|--------|--------|------------|------------------| 
E|-0-------|---------|------------|------------|-0------|--------|-2--2--2--2-|--2--2--2-2-2-2-2-| 


3rd Chorus 
G|----------|----------|----------|--------|----------|----------|------|-----------| 
D|----------|----------|----------|--------|----------|----------|------|-----------| 
A|-2-2--1-1-|----------|-2-2--1-1-|------2-|-2-2--1-1-|----------|-4----|-----------| 
E|----------|-0-0--2-2-|----------|-0-0----|----------|-0-0--2-2-|------|-2-2-2-2---| 


Outro/Ending (x4)   
G|----------|----------| 
D|----------|----------| 
A|-2-2--1-1-|----------| 
E|----------|-0-0--2-2-| 

G|-----------------| 
D|-----------------| 
A|-2---------------| 
E|-----------------| 
	  

Search Paypal
auto scroll beats size up size down change color hide chords drawings
tab show chords e-chords YouTube Clip e-chords hide all tabs e-chords go to top tab