Heroes del silencio

La Isla De Las Iguanas

Heroes del silencio

bass

by  PAULLET3

save to print version add songbook text version e-mail correct tuner
chordsukulelecavacokeyboardtabbassdrumsharmonicaflute Guitar Pro
close

there isn't a video lesson for this song

chords

La Isla De Las Iguanas

(Pedro Andreu, Joaquin Cardiel, E. De Landazuri Ortiz, Janet Valdivia)

	  		esta es una buena cancion, el bajo suena asi 

intro 
----------| 
----------| 
---3---3-3|esto tres veses 
1-1-1h3---| 

----------| 
----------| 
---3---1-1| 
1-1-1-3---| 

despues del intro sige asi 

----------| 
----------| 
---3---3-3|esto se repite varias veses 
1-1-1h3---| 

despues continua asi 

---------------------|---------------------| 
---------------------|---------------------|todo esto  
---3---3-3----3---3-3|---1---1-1----1---1-1|dos veses 
1-1-1h3----1-1-1h3---|1-1-1h3----1-1-1h3---| 
(0:41)=el tiempo en que entra 

---|-----|---|-------|---------|---| 
---|-----|---|-------|---------|---| 
---|-----|4-4|-------|---------|---| 
2-2|2-4-5|---|0h1-2-2|5-4-2-4-2|2-1| 
(0:55) 

---|-----|---|-------|---------| 
---|-----|---|-------|---------| 
---|-----|4-4|-------|---------| 
2-2|2-4-5|---|0h1-2-2|5-4-2-4-2| 

---------------------|---------------------| 
---------------------|---------------------|todo esto  
---3---3-3----3---3-3|---1---1-1----1---1-1|dos veses 
1-1-1h3----1-1-1h3---|1-1-1h3----1-1-1h3---| 
(1:05) 

---|-----|---|-------|---------|---| 
---|-----|---|-------|---------|---| 
---|-----|4-4|-------|---------|---| 
2-2|2-4-5|---|0h1-2-2|5-4-2-4-2|2-1| 
(1:19) 

---|-----|---|-------|---------| 
---|-----|---|-------|---------| 
---|-----|4-4|-------|---------| 
2-2|2-4-5|---|0h1-2-2|5-4-2-4-2| 

despues entra lo que yo le llamo el coro 

-----------|-----------|---------|-----| 
-----------|-----------|---------|-----|esto dos 
4-4-4-4-4-4|-----------|---------|-----|veses 
-----------|4-4-4-4-4-4|2-2-4-2-2|2-4-5| 
(1:24) 

---|-----|---|-------|---------|---| 
---|-----|---|-------|---------|---| 
---|-----|4-4|-------|---------|---| 
2-2|2-4-5|---|0h1-2-2|5-4-2-4-2|2-1| 
(1:43) 

---|-----|---|-------|---------| 
---|-----|---|-------|---------| 
---|-----|4-4|-------|---------| 
2-2|2-4-5|---|0h1-2-2|5-4-2-4-2| 

vuelve a entrar el intro 

----------| 
----------| 
---3---3-3|esto tres veses 
1-1-1h3---| 
(1:55) 
----------| 
----------| 
---3---1-1| 
1-1-1-3---| 

despues  sige asi 

----------| 
----------| 
---3---3-3|esto se repite cuatro veses 
1-1-1h3---| 
(2:00) 

---------------------|---------------------| 
---------------------|---------------------|todo esto  
---3---3-3----3---3-3|---1---1-1----1---1-1|dos veses 
1-1-1h3----1-1-1h3---|1-1-1h3----1-1-1h3---| 
(2:07) 

despues vuelve a entrar el coro 

-----------|-----------|---------|-----| 
-----------|-----------|---------|-----|esto cuatro 
4-4-4-4-4-4|-----------|---------|-----|veses 
-----------|4-4-4-4-4-4|2-2-4-2-2|2-4-5| 
(2:21) 

despues 
-----------|---------| 
-----------|---------| 
-----------|---------| 
2-2-4-2-2-2|2-2-4-2-2| 
(2:48) 

---|-----|---|-------|---------|---| 
---|-----|---|-------|---------|---| 
---|-----|4-4|-------|---------|---| 
2-2|2-4-5|---|0h1-2-2|5-4-2-4-2|2-1| 
(3:02) 

---|-----|---|-------|---------| 
---|-----|---|-------|---------| 
---|-----|4-4|-------|---------| 
2-2|2-4-5|---|0h1-2-2|5-4-2-4-2| 

y eso es todo dudas o correccione no duden en escribir 

ojala alguien mande el tab de guitarra para completar esta buena cancion.
		  

auto scroll beats size up size down change color hide chords drawings
tab show chords e-chords YouTube Clip e-chords hide all tabs e-chords go to top tab

share