Good Charlotte

home > Good Charlotte

Lil Things Bass Tab

Good Charlotte

Difficulty: nolevelnolevel

tuner correct add songbook print version text version save to e-mail
chordsukulelecavacokeyboardtabbassdrumsharmonicsflute Guitar Pro
chords

Lil Things

  		


Intro/Verse/PreChorus
G|-----------------------------------------|
D|-----------------------------------------|
A|-44444----------------0------------------|
E|-------444-3-22222-22--------------------|

Chorus
G|--------------------------------------|
D|--------------------------------------|
A|-4-4-4-4------------------------------|
E|----------4-4-4-4--2-2-2-2--5-5-5-5---|
(this is how I play it, the real version
goes like this)

G|-----------------------------------------|
D|-----------------------------------------|
A|-44444444--------------------------------|
E|-----------44444444--22222222--55555555--|

End of chorus
G|--------------------|    |-------------------------------|
D|--------------------|    |-------------------------------|
A|--------------------|    |-------------------------------|
E|-22222222-55555555--|(x3)|-22222222-5-6-7-8-9-10-11-12---|

Great song

	  

Search Paypal
auto scroll beats size up size down change color hide chords drawings
tab show chords e-chords YouTube Clip e-chords hide all tabs e-chords go to top tab