Good Charlotte

home > Good Charlotte

Girls & Boys (ver. 2) Bass Tab

Good Charlotte

Difficulty: nolevelnolevel

tuner correct add songbook print version text version save to e-mail
chordsukulelecavacokeyboardtabbassdrumsharmonicsflute Guitar Pro
chords

Girls & Boys (ver. 2)

  		



 - Girls & Boys

Standard Tuning

Intro
G----------------------
D----------------------     2x
A-------------6-5------      
E--4-0-4-6--4-----6----

Riff       
G-------------------  
D-------------------     5x   
A-------------------              (Play After Last Riff)
E--4-0-4-6-6-6-6-6--                --4-4-4-4-4-4-4-4--

Chorus
G---------------------------------------------------------------------
D---------------------------------------------------------------------    2x
A--6-6-6-6-6-6-6-6--5-5-5-5-5-5-5-5-----------------------------------
E------------------------------------4-4-4-4-4-4-4-4-4-4-4-4-4-4-4-4--

Intro
G----------------------
D----------------------     4x
A-------------6-5------      
E--4-0-4-6--4-----6----

Riff                                           
G-------------------                           
D-------------------     5x	     
A-------------------              (Play After Last Riff)                  
E--4-0-4-6-6-6-6-6--               --4-4-4-4-4-4-4-4--

Chorus
G---------------------------------------------------------------------
D---------------------------------------------------------------------     4x
A--6-6-6-6-6-6-6-6--5-5-5-5-5-5-5-5-----------------------------------
E------------------------------------4-4-4-4-4-4-4-4-4-4-4-4-4-4-4-4--

Bridge                                     
G----------------------------- 
D-----------------------------     4x    
A--------------3\5\3----------                 (Play After Last Bridge)
E--6\8--4-4-4----------4-4-4--            --6-6-6-6-6-6-6-6-6-6-6-6-6-6-6-6--

Chorus 
G-------------------------------------------------------------
D-------------------------------------------------------------     2x
A--6--6--6--6----5--5--5--5-----------------------------------
E----------------------------4-4-4-4-4-4-4-4-4-4-4-4-4-4-4-4--

Chorus
G---------------------------------------------------------------------
D---------------------------------------------------------------------    2x
A--6-6-6-6-6-6-6-6--5-5-5-5-5-5-5-5-----------------------------------
E------------------------------------4-4-4-4-4-4-4-4-4-4-4-4-4-4-4-4--

Ending 1
G--------
D--------     a few times
A--------
E--4--6--

Ending 2
G-------------------                           
D-------------------     until end of song
A-------------------              
E--4-0-4-6-6-6-6-6--               

	  

Search Paypal
auto scroll beats size up size down change color hide chords drawings
tab show chords e-chords YouTube Clip e-chords hide all tabs e-chords go to top tab