Feeder

We Can't Rewind

Feeder

bass

save to print version add songbook text version e-mail correct tuner
chordsukulelecavacokeyboardtabbassdrumsharmonicaflute Guitar Pro
close

there isn't a video lesson for this song

chords

We Can't Rewind

	  		






 
   
Tab by: poontag
Album: Echo park 
 
i dont know the base in the verse greg   


Pre Chorus 
E ------5-5------3-3-----------------------
A --5-5------2-2---------------------------
D ----------------------------------------- 
G ----------------------------------------- 

E -----5-5--2-2---3-3-----------3-3--------
A -5-5-------------------------------------
D ----------------------------------------- 
G ----------------------------------------- 

 chorus
 
E ---------5-5-5-5-----------3-3-3-3-------
A -5-5-5-5---------2-2-2-2-2---------------
D ----------------------------------------- 
G -----------------------------------------

 
E --------5-5-5-5--2-2-2-2-2---3-3-3-3-----
A -5-5-5-5---------------------------------
D ----------------------------------------- 
G -----------------------------------------

Play as many times as it needs

And repeat this till the end of song

		  

See also:

bass Feeder - Waiting For Changes bass Feeder - Turn bass Feeder - Anaesthetic bass Feeder - Bug bass Feeder - Piece By Piece (ver. 2) bass Feeder - Insomnia (ver. 3)
e-chords

Other versions:

bass Feeder - We Can't Rewind
auto scroll beats size up size down change color hide chords drawings
tab show chords e-chords YouTube Clip e-chords hide all tabs e-chords go to top tab

share