Feeder

Tinsel Town

Feeder

tabs

save to print version add songbook text version e-mail correct tuner
chordsukulelecavacokeyboardtabbassdrumsharmonicaflute Guitar Pro
close

there isn't a video lesson for this song

chords

Tinsel Town

	  		Feeder-Tinsel Town 
 
Gtr 1.Standard Tuning 
Gtr 2.Drop D 
> play 8 times 
 
INTRO & VERSE(Gtr.1) 
e--3---3---3---3---3---3---3---3---3---3---3---3---3---3---3---3---- 
b----0---0---0---0---0---0---0---0---0---0---0---0---0---0---0---0-- 
g------------------------------------------------------------------- 
d------------------------------------------------------------------- 
a------------------3---3---3---3-------------------3---3---3---3---- 
E--3---3---3---3-------------------0---0---0---0-------------------- 
 
CHORUS(Gtr.2) 
e--9---9---9---9---10--10--10--10---9---9---9---9---10--10--10--10-- 
b---10--10--10--10--10--10--10--10---10--10--10--10---10---10-10-10- 
g------------------------------------------------------------------- 
d------------------------------------------------------------------- 
a------------------------------------------------------------------- 
D------------------------------------------------------------------- 
 
 
BRIDGE 
e--3---3---3---3---3---3---3---3---3---3---3---3---3---3---3---3---- 
b----0---0---0---0---0---0---0---0---0---0---0---0---0---0---0---0-- 
g------------------------------------------------------------------- 
d--0---0---0---0---2---2---2---2------------------------------------ 
a----------------------------------3---3---3---3-------------------- 
E--------------------------------------------------3---3---2---2---- 
 
 
e--3---3---3---3---3---3---3---3---3---3---3---3---3---3---3---3---- 
b----0---0---0---0---0---0---0---0---0---0---0---0---0---0---0---0-- 
g------------------------------------------------------------------- 
d--0---0---0---0---2---2---2---2------------------------------------ 
a----------------------------------3---3---3---3---3---3---3---3---- 
E------------------------------------------------------------------- 
 
Then after the bridge Gtr.2 plays this with distortion 
(listen to the song to get the rhythmn) 
e--------------------- 
b--------------------- 
g--------------------- 
d--7----0----4----0--- 
a--7>---0>---4>---0>-- 
D--7----0----4----0--- 
 

		  

Full key step upFull key step up
Half key step upHalf key step up
Half key step downHalf key step down
Full key step downFull key step down
hide glossary

See also:

tabs Feeder - Standing On The Edge tabs Feeder - Sweet Sixteen tabs Feeder - You're My Evergreen tabs Feeder - Just A Day tabs Feeder - Just The Way I'm Feeling tabs Feeder - Buck Rogers (ver. 2)
e-chords

Other versions:

tabs Feeder - Tinsel Town
auto scroll beats size up size down change color hide chords drawings
tab show chords e-chords YouTube Clip e-chords hide all tabs e-chords go to top tab

share