Engenheiros do Hawaii

A Violência Travestida Faz Seu Trottoir

Engenheiros do Hawaii

bass Advanced advanced

by  EDUARDO_LYVIO

save to print version add songbook text version e-mail correct tuner
chordsukulelecavacokeyboardtabbassdrumsharmonicaflute Guitar Pro
close

there isn't a video lesson for this song

chords

A Violência Travestida Faz Seu Trottoir

Year: 1990 - Album: O Papa é Pop

(Gessinger)

	  		INTRO 
G||--9h-11\-12---------9--12--9--|------9--12--9------9--12----| 
D||-------------9--10------------|--10------------10-----------| 
A||------------------------------|-----------------------------| 
E||------------------------------|-----------------------------| 
 
--9h-11\-12---------9--12--9--|-----9--12--9-----9--12----| 
-------------10--9------------|--9------------9-----------| 
------------------------------|---------------------------| 
------------------------------|---------------------------| 
 
--9h-11\-12---------9--12--9--|------9--12--9------9--12----| 
-------------9--10------------|--10------------10-----------| 
------------------------------|-----------------------------| 
------------------------------|-----------------------------| 
 
--9h-11\-12---------9--12--9--|-----9--12--9-----9--12----| 
-------------10--9------------|--9------------9-----------| 
------------------------------|---------------------------| 
------------------------------|---------------------------| 
 
--11/-12------11----9----|--11---------11---------|--12----------12----------| 
-------------------------|----------9----------9--|----------10----------10--| 
-------------------------|------------------------|--------------------------| 
-------------------------|------------------------|--------------------------| 
 
--14----------14----------|--14----------------------| 
----------12----------12--|-----------------------9--| 
--------------------------|----------------9--10-----| 
--------------------------|------------12------------| 
 
VERSOS 1&2 
 ||                                                                            ||2x   
G||-------------------------------------------|--------------------------------|| 
D||---10--10-10-10--10-10-10--10-10-10-9------|------------------------------9-|| 
A||--------------------------------------10-9-|--7--7-7-7--7-7-7--7-7-7-9-10---|| 
E||-------------------------------------------|--------------------------------|| 
 
--------------------------------12-11-9----|--9--9-9-9--9-9-9--9-9-12-11-9-7-| 
--10--10-10-10--10-10-10--10-10---------12-|---------------------------------| 
-------------------------------------------|---------------------------------| 
-------------------------------------------|---------------------------------| 
 
------------------------------------|------------------------------------| 
--10--10-10-10--10-10-9--9-9-9--9-9-|--7--7-7-7--7-7---------------------| 
------------------------------------|----------------10--10-10-10--10-10-| 
------------------------------------|------------------------------------| 
 
------------------------|---------------------------| 
-------12---------12----|-------12---------------9--| 
--9----------9----------|--9--------------9--10-----| 
------------------------|-------------12------------| 
 
VERSO3: 
 ||                                                                            ||2x   
G||-------------------------------------------|--------------------------------|| 
D||---10--10-10-10--10-10-10--10-10-10-9------|------------------------------9-|| 
A||--------------------------------------10-9-|--7--7-7-7--7-7-7--7-7-7-9-10---|| 
E||-------------------------------------------|--------------------------------|| 
 
--------------------------------12-11-9----|--9--9-9-9--9-9-9--9-9-12-11-9-7-| 
--10--10-10-10--10-10-10--10-10---------12-|---------------------------------| 
-------------------------------------------|---------------------------------| 
-------------------------------------------|---------------------------------| 
 
------------------------------------|------------------------------------| 
--10--10-10-10--10-10-9--9-9-9--9-9-|--7--7-7-7--7-7---------------------| 
------------------------------------|----------------10--10-10-10--10-10-| 
------------------------------------|------------------------------------| 
 
------------------------|--------------------------| 
-------12---------12----|-------12-----------------| 
--9----------9----------|--9-----------------------| 
------------------------|--------------------------| 
 
Refrão: 
G||---9--9-9-9--9-9-9--9-9-9-----| 
D||---------------------------7--| 
A||------------------------------| 
E||------------------------------| 
 
--7--7-7-7--7-7-7--7-7-7-----|--5--5-5-5--5-5-5--5-5-5-----| 
--------------------------7--|--------------------------7--| 
-----------------------------|-----------------------------| 
-----------------------------|-----------------------------| 
                             |2x| 
--7--7-7-7-----8--8-8-8------|  |--9--9-9-9--9-9-9--9-9-9-----| 
------------7------------7---|  |--------------------------7--| 
-----------------------------|  |-----------------------------| 
-----------------------------|  |-----------------------------| 
 
--7--7-7-7--7-7-7--7-7-7-----|--5--5-5-5--5-5-9--9-9-9--9-9-| 
--------------------------7--|------------------------------| 
-----------------------------|------------------------------| 
-----------------------------|------------------------------| 
 
--12--12-12-12--12-12-17--17-17-17--17-17-|--16---------------------| 
------------------------------------------|-------------------------| 
------------------------------------------|--------17---------------| 
------------------------------------------|-------------------------| 
 
SOLOS 1,2&4: 
G||---9--9-9-9--9-9-9--9-9-9-----| 
D||---------------------------7--| 
A||------------------------------| 
E||------------------------------| 
 
--7--7-7-7--7-7-7--7-7-7-----|--5--5-5-5--5-5-5--5-5-5-----| 
--------------------------7--|--------------------------7--| 
-----------------------------|-----------------------------| 
-----------------------------|-----------------------------| 
                              
--7--7-7-7-----8--8-8-8------|--9--9-9-9--9-9-9--9-9-9-----| 
------------7------------7---|--------------------------7--| 
-----------------------------|-----------------------------| 
-----------------------------|-----------------------------| 
 
--7--7-7-7--7-7-7--7-7-7-----|--5--5-5-5--5-5-9--9-9-9--9-9-| 
--------------------------7--|------------------------------| 
-----------------------------|------------------------------| 
-----------------------------|------------------------------| 
 
--12--12-12-12--12-12-17--17-17-17--17-17-|--16---------------------| 
------------------------------------------|----------------------9--| 
------------------------------------------|--------17-----9--10-----| 
------------------------------------------|------------12-----------| 
 
VERSO4: 
 ||                                                                            ||5x   
G||-------------------------------------------|--------------------------------|| 
D||---10--10-10-10--10-10-10--10-10-10-9------|------------------------------9-|| 
A||--------------------------------------10-9-|--7--7-7-7--7-7-7--7-7-7-9-10---|| 
E||-------------------------------------------|--------------------------------|| 
 
--------------------------------12-11-9----|--9--9-9-9--9-9-9--9-9-12-11-9-7-| 
--10--10-10-10--10-10-10--10-10---------12-|---------------------------------| 
-------------------------------------------|---------------------------------| 
-------------------------------------------|---------------------------------| 
 
------------------------------------|------------------------------------| 
--10--10-10-10--10-10-9--9-9-9--9-9-|--7--7-7-7--7-7---------------------| 
------------------------------------|----------------10--10-10-10--10-10-| 
------------------------------------|------------------------------------| 
 
------------------------|--------------------------| 
-------12---------12----|-------12-----------------| 
--9----------9----------|--9-----------------------| 
------------------------|--------------------------| 
 
VERSO5: 
 ||                                                      ||2x 
G||-----------12-----------12--|-------------------------|| 
D||---10------------9/10-------|--9---------------7--9---|| 
A||----------------------------|---------7----10---------|| 
E||----------------------------|-------------------------|| 
 
----------12-----------12--|---------------9-12-11-9-7-| 
--10------------9/10-------|--9------------------------| 
---------------------------|---------7-----------------| 
---------------------------|---------------------------| 
 
------------------------------------|------------------------------------| 
--10--10-10-10--10-10-9--9-9-9--9-9-|--7--7-7-7--7-7---------------------| 
------------------------------------|----------------10--10-10-10--10-10-| 
------------------------------------|------------------------------------| 
 
------------------------|---------------------------| 
-------12---------12----|-------12---------------9--| 
--9----------9----------|--9--------------9--10-----| 
------------------------|-------------12------------| 
 
SOLO DE BAIXO 1: 
|| 
||---9--9-9--9-9--10-10-10-10-10-10---| 
||------------------------------------| 
||------------------------------------| 
||------------------------------------| 
                              |3x| 
--9--9-9--9-9--12--11--9------|  |--5--5-5-5--5-5-9--9-9-9--9-9-| 
--------------------------12-*|  |------------------------------| 
-----------------------------*|  |------------------------------| 
------------------------------|  |------------------------------| 
 
--12--12-12-12--12-12-17--17-17-17--17-17-|--16------------------| 
------------------------------------------|----------------------| 
------------------------------------------|--------17------------| 
------------------------------------------|----------------------| 
 
SOLO 3: 
G||---9--9-9-9--9-9-9--9-9-9-----| 
D||---------------------------7--| 
A||------------------------------| 
E||------------------------------| 
 
--7--7-7-7--7-7-7--7-7-7-----|--5--5-5-5--5-5-5--5-5-5-----| 
--------------------------7--|--------------------------7--| 
-----------------------------|-----------------------------| 
-----------------------------|-----------------------------| 
                             ||2X 
--7--7-7-7-----8--8-8-8------|| 
------------7------------7---|| 
-----------------------------|| 
-----------------------------|| 
 
TRECHO LENTO: 
     A 
||-----------9--------------9------| 
||-------11-----11------11-----11--| 
||---12-------------12-------------| 
||---------------------------------| 
                                   Am 
----------9--------------9------|----------9--------------9------| 
------11-----11------11-----11--|------10-----10------10-----10--| 
--12-------------12-------------|--12-------------12-------------| 
--------------------------------|--------------------------------| 
                                   G 
----------9--------------9------|---------7------------7-----| 
------10-----10------10-----10--|------9-----9------9-----9--| 
--12-------------12-------------|--10-----------10-----------| 
--------------------------------|----------------------------| 
                               A 
---------7------------7-----|----------9--------------9------| 
------9-----9------9-----9--|------11-----11------11-----11--| 
--10-----------10-----------|--12-------------12-------------| 
----------------------------|--------------------------------| 
                                 |5x|  G 
----------9--------------9-------|  |---------7------------7-----| 
------11-----11------11-----11---|  |------9-----9------9-----9--| 
--12-------------12--------------|  |--10-----------10-----------| 
---------------------------------|  |----------------------------| 
 
--------------------| 
--------------------| 
--10\---------------| 
--------------------| 
 
SOLO DE BAIXO 2: 
||   Am                                                                ||2x 
||-------14--12h14---17---14--12h14--|------14--12h14------------------|| 
||*----------------------------------|------------------11--12--14----*|| 
||*--12------------------------------|--12----------------------------*|| 
||-----------------------------------|---------------------------------|| 
||  Em                            ||3x 
||--------------------------------|| 
||------14--12h14---11------------|| 
||-----------------------14---12--|| 
||--12----------------------------|| 
   Em 
||--------------------------------|| 
||------14--12h14-----------------|| 
||------------------12--15--14----|| 
||--12----------------------------|| 
 
Versos Finais: 
                          |3x| 
|-------------------------|  |--------------14\-----|--9----7----6---------| 
|-------------------------|  |----------------------|-----------------9----| 
|---12------------9h10----|  |--12------------------|----------------------| 
|-------------------------|  |----------------------|----------------------| 
                      ||                         |2x|                        
--9----7----6---------||-------------------------|  |--------------14\-----| 
-----------------9----||*-----------------------*|  |----------------------| 
----------------------||*--12------------9h10---*|  |--12------------------| 
----------------------||-------------------------|  |----------------------| 
                                             ||                         ||2x 
--9----7----6---------|--9----7----6---------||-------------------------|| 
-----------------9----|-----------------9----||*-----------------------*|| 
----------------------|----------------------||*--12------------9h10---*|| 
----------------------|----------------------||-------------------------|| 
 
--------------14\-----|--9----7----6---------|--9----7----6---------| 
----------------------|-----------------9----|-----------------9----| 
--12------------------|----------------------|----------------------| 
----------------------|----------------------|----------------------| 
 
----------------------------|------------------|--9h-11\-12---------9--12--9--| 
----------------------------|------------------|-------------9--10------------| 
--12-----12--12----12--12---|------------------|------------------------------| 
----------------------------|------------------|------------------------------| 
 
------9--12--9------9--12----|--9h-11\-12---------9--12--9--| 
--10------------10-----------|-------------10--9------------| 
-----------------------------|------------------------------| 
-----------------------------|------------------------------| 
 
-----9--12--9-----9--12----|--11/-12------11----9----|--11---------11---------| 
--9------------9-----------|-------------------------|----------9----------9--| 
---------------------------|-------------------------|------------------------| 
---------------------------|-------------------------|------------------------| 
 
--12----------12----------|--14----------14----------|--14----------------| 
----------10----------10--|----------12----------12--|--------------------| 
--------------------------|--------------------------|--------------------| 
--------------------------|--------------------------|--------------------| 
|                                                    ||3x 
|---9h-11\-12--14--16--------|--16--------16---------|| 
|*---------------------------|----------------------*|| 
|*---------------------------|----------------------*|| 
|----------------------------|-----------------------|| 
 
--9h-11\-12--14--16--------|| 
---------------------------|| 
---------------------------|| 
---------------------------|| 
 

		  

Full key step upFull key step up
Half key step upHalf key step up
Half key step downHalf key step down
Full key step downFull key step down
hide glossary

See also:

bass Los Hermanos - Retrato pra Iaiá bass Engenheiros do Hawaii - Até o fim bass Lulu Santos - Toda forma de amor bass Cássia Eller - O Segundo Sol bass Legião Urbana - Quando o sol bater na janela do teu quarto (tab p/ baixo) bass Los Hermanos - Anna Julia
e-chords

Other versions:

bass Engenheiros do Hawaii - A Violência Travestida Faz Seu Trottoir
auto scroll beats size up size down change color hide chords drawings
tab show chords e-chords YouTube Clip e-chords hide all tabs e-chords go to top tab

share with facebook