Dilly Dally

I Feel Free

Dilly Dally

bass

by  MARCNAGEL

save to print version add songbook text version e-mail correct tuner
chordsukulelecavacokeyboardtabbassdrumsharmonicaflute Guitar Pro
close

there isn't a video lesson for this song

chords

I Feel Free

	  		
Intro 

G|-------------------------------| 
D|-------------------------------| 
A|---3---5-----------------------| 
E|-5---3-------------------------|  x4 


Chorus 

G|---------------------------------------------------------------------------| 
D|---------------------------------------------------------------------------| 
A|-----------------3-3-3-3-3-3-3-3-----------------5-5-5-5-5-5-5-5-----------| x4 
E|-5-5-5-5-5-5-5-5-----------------3-3-3-3-3-3-3-3---------------------------| 


verse 2 

G|---------------------------------------------------------------------------| 
D|---------------------------------------------------------------------------| 
A|-----------------3-3-3-3-3-3-3-3-----------------5-5-5-5-5-5-5-5-----------| x4 
E|-5-5-5-5-5-5-5-5-----------------3-3-3-3-3-3-3-3---------------------------| 


Chorus 

G|---------------------------------------------------------------------------| 
D|---------------------------------------------------------------------------| 
A|-----------------3-3-3-3-3-3-3-3-----------------5-5-5-5-5-5-5-5-----------| x4 
E|-5-5-5-5-5-5-5-5-----------------3-3-3-3-3-3-3-3---------------------------| 


Outro 

G|---------------------------------------------------------------------------| 
D|---------------------------------------------------------------------------| 
A|-----------------3-3-3-3-3-3-3-3-----------------5-5-5-5-5-5-5-5-----------| x4 
E|-5-5-5-5-5-5-5-5-----------------3-3-3-3-3-3-3-3---------------------------| 
		  

See also:

bass Deep Purple - Smoke On The Water (ver. 3) bass Deep Purple - Ted The Mechanic bass Deep Purple - Speed King bass Deep Purple - Burn bass Deep Purple - Into The Fire bass Deep Purple - Strange kind of woman
e-chords

Other versions:

bass Dilly Dally - I Feel Free
auto scroll beats size up size down change color hide chords drawings
tab show chords e-chords YouTube Clip e-chords hide all tabs e-chords go to top tab

share with facebook