Charlie Brown Jr.

So Far Away Bass Tab

Charlie Brown Jr.

Difficulty: ExpertExpert

by abrah%E3o

tuner correct add songbook print version text version save to e-mail
chordsukuleleukulelecavacokeyboardtabbassdrumsharmonicsflute Guitar Pro
close

there isn't a video lesson for this song

chords

So Far Away

Year: 2005 - Album: Tamo Ai Na Atividade

  		INTRO 
 
E|-----------------------------|	 
A|8-8-6-8-6-8-8-6-8-6-8-6-8-8-8| 
D|-----------------------------| 
G|-----------------------------| 
 
 
VERSO 
 
E|------------4-4-4-4-4-4------------------------------------------- 
A|4-4-4-4-4-4-------------8-8-6-8-6-8-8-8----4-4-4-4-4-4-6-6-6-6-6-6 
D|------------------------------------------------------------------ 
G|------------------------------------------------------------------ 
 
E|---------------| 
A|8-8-6-8-6-8-8-8| 
D|---------------| 
G|---------------| 
 
 
Refrão 
 
E|------------------------------------------------------------------| 
A|8-8----8---8----8---8-6-6---6---6---6---3-3--3----3-3-3-3-4-4-4-4-|  
D|-----6---8----6---6-------8-------8---8---------------------------| 
G|------------------------------5------------5----5-----------------| 
 
 
OUTRO 
 
E|----------| 
A|6-8-9-----| 
D|------6-8-| 
G|----------| 
 
 

	  

auto scroll beats size up size down change color hide chords drawings
tab show chords e-chords YouTube Clip e-chords hide all tabs e-chords go to top tab

share with facebook

Search Paypal