Cazuza

home > Cazuza

Exagerado Bass Tab

Cazuza

Difficulty: BeginnerBeginner

by FlavioBS

tuner correct add songbook print version text version save to e-mail
chords

Exagerado

Year: 1996 - Album: O Tempo Não Pára: Ao Vivo

(Leoni / Cazuza / Ezequiel Neves)

  		Intro: 
G|-------------------------------------------------------- 
D|------------------------------5--5--5------------------- 
A|--------------------------------------5--5--3--3--3----- 
E| 3--3--3--3--3--3--3--3--3--3-----------------------3--- 
 
 
G|-------------------------------------------------------- 
D|--------------5--5--5--5-------------------------------- 
A|-------------------------5--5--5---3--3--3-------------- 
E|3--3--3--3--3------------------------------3------------ 
 
1° Parte 
 
G:--------------------------------------------------------- 
D:--------------------------------------------------------- 
A:---------------------------------5--5--3----3---3---3---- 
E:3--3--3--3--3--3--3--3--3--3--3-----------------------3-- 
 
...Amor da minha vida, daqui até a eternidade... 
 
2° Parte 
  
G|-------------------------------------------------------- 
D|-------------------------------------------------------- 
A|------------------5--5--5--5--5--5---3--3--3--3--3--3--- 
E|0--0--0--0--0--0---------------------------------------- 
 
...nossos destinos foram traçados na maternidade...  
Nessa Música, uma pequena "quebra" separa as partes na música.  
Ela sempre aparece no fim das "partes inteiras". 
 
Quebra: 
G|------------------ 
D|------------------ 
A|----0---2----5---- 
E|------------------ 
 
Repete Primeira Parte  
...eu nunca mais vou respirar...  
Repete Segunda Parte  
...eu posso até morrer de fome...  
 
Refrão: 
 
G|------------------------------------------------------- 
D|------------------------------------------------------- 
A|-2--2--2--2--2--2-2--2--2--------------5--5--5--5--5--- 
E|---------------------------0--0--0--0------------------ 
 
G|------------------------------------------------------- 
D|------------------------------------------------------- 
A|----------------------5---5---5--5----3---3---3---3---- 
E|-3----3----3---3--------------------------------------- 
 
 
Fim de Refrão
  
G|------------------------------------------------------- 
D|------------------------------------------------------- 
A|---------------5--5--5--5---3--3--3--3----------------- 
E|0--0--0--0--5------------------------------------------ 
 
Durante o solo 
  
G|------------------------------------------------------- 
D|------------------------------5--5--5------------------ 
A|--------------------------------------5--5--3--3--3---- 
E|3--3--3--3--3--3--3--3--3--3-------------------------3- 
 
Finaliza a canção com a Pequena Quebra: 
  
G|--------------------------- 
D|--------------------------- 
A|---0---2----5-------------- 
E|--------------------------- 
 
Pessoal se ficarem com duvidas meu e-mail é : [email protected] 
	  

Search Paypal
auto scroll beats size up size down change color hide chords drawings
tab show chords e-chords YouTube Clip e-chords hide all tabs e-chords go to top tab