Camper Van Beethoven

Eye Of Fatima Pt 1

Camper Van Beethoven

bass

by  FERNSANTANA

save to print version add songbook text version e-mail correct tuner
chordsukulelecavacokeyboardtabbassdrumsharmonicaflute Guitar Pro
close

there isn't a video lesson for this song

chords

Eye Of Fatima Pt 1

	  		
Intro 
G|--------------|----------------|------------|----------------| 
D|--------------|---5-3---3-5-3--|------------|----------------| 
A|--------------|-------5-------5|--------7---|------------7---| 
E|-3-3--3-3-3--3|-3--------------|-0-0--7---7-|-0--0--0--7---7\| 

G|--------------|----------------|------------|-------------------| 
D|--------------|---5-3---3-5-3--|------------|-------------------| 
A|--------------|-------5-------5|--------7---|-----14---------5--| 
E|-3-3--3-3-3--3|-3--------------|-0-0--7---7-|-12------12-\-7---7| 

G|----------------|----------------|----------------|-----------------| 
D|----------------|----------------|----------------|-----------------| 
A|-8-8-8-8-8-8-8-8|-8-8------------|----------------|---8-7---7-8-7-8/| 
E|----------------|-----5-5-6-6-7-7|-8-8-8-8-8-8-8-8|-8-----8---------| 

G|----12-10-9-----------|-10-10-8-7---------|-7-7-7-7\---------|----------------| 
D|------------12-10-9---|-----------10-8-7--|----------4-4-4-4/|-7-7-7-7--------| 
A|-10-----------------10|------------------8|------------------|---------5-5----| 
E|----------------------|-------------------|------------------|-------------5-5| 

Verse 
G|--------------|----------------|------------|------------------| 
D|--------------|---5-3---3-5-3--|------------|------------------| 
A|--------------|-------5-------5|--------7---|------5-7-5---5-7\| 
E|-3-3--3-3-3--3|-3--------------|-0-0--7---7-|-0--7-------7-----| 

G|--------------|----------------|------------|--------------------| 
D|--------------|---5-3---3-5-3--|------------|--------------------| 
A|--------------|-------5-------5|--------7---|-----14---------5---| 
E|-3-3--3-3-3--3|-3--------------|-0-0--7---7-|-12------12-\-7---7\| 

Pre-Chorus 
G|----------------|----------------|----------------|-----------------| 
D|----------------|----------------|----------------|---3-2---2-3-2-3/| 
A|----------------|-----0-0-1-1-2-2|-3-3-3-3-3-3-3-3|-3-----3---------| 
E|-1-1-1-1-1-1-1-1|-1-1------------|----------------|-----------------| 

Chorus 
G|----------------|----------------|------------------|----------------| 
D|-5-5-5-5-5-5-5-5|-3-3-3-3-3-3-3-3|------------------|----------------| 
A|----------------|----------------|-5-5-5-5\---------|---------5-5-5-5| 
E|----------------|----------------|----------2-2-2-2/|-5-5-5-5--------| 

Verse 
G|--------------|----------------|------------|-----------------| 
D|--------------|---5-3---3-5-3--|------------|-----------------| 
A|--------------|-------5-------5|--------7---|-------------7---| 
E|-3-3--3-3-3--3|-3--------------|-0-0--7---7-|-0--0--0-0-7---7\| 

G|--------------|-----------------|--------------|---------------| 
D|--------------|-----------------|--------------|---9-----------| 
A|--------------|-----2---3---4-5/|-7-7--7-7-7--0|-7----7-\-2-5-2| 
E|-3-3--3-3-3--0|-3-3---3---3-----|--------------|---------------| 

Pre-Chorus 
G|----------------|----------------|----------------|-----------------| 
D|-3-3-3-3-3-3-3-3|-3-3------------|----------------|---------3-2---3/| 
A|----------------|-----0-0-1-1-2-2|-3-3-3-3-3-3-3-3|-3-----------3---| 
E|----------------|----------------|----------------|---1-0-1---------| 

Chorus 
G|----------------|----------------|----------------|-----7---9-7-----| 
D|-5-5-5-5-5-5-5--|-3-3-3-3-3-3-3--|-----4---4-5-7-4|-7-7---7-----9-7\| 
A|---------------5|----------------|-5-7---5--------|-----------------| 
E|----------------|---------------5|----------------|-----------------| 

Verse 
G|--------------|------------------|--------------|-------------| 
D|-5-5--5-5-5--5|-5-3h5-3---3-5-3--|--------------|-------------| 
A|--------------|---------5-------5|-7-7--7-7-7--7|-7-----------| 
E|--------------|------------------|--------------|---4--5--6--7| 

G|--------------|-----------------|--------------|---9-------9----| 
D|--------------|-----------------|--------------|-----7-9-----7-9| 
A|--------------|-----2---3---4-5/|-7-7--7-7-7--0|-7-------7------| 
E|-3-3--3-3-3--0|-3-3---3---3-----|--------------|----------------| 

Pre-Chorus 
G|----------------|----------------|----------------|-----------------| 
D|----------------|----------------|----------------|-----------------| 
A|-8-8-8-8-8-8-8-8|-8-8------------|----------------|---8-7---7-8-7-8/| 
E|----------------|-----5-5-6-6-7-7|-8-8-8-8-8-8-8-8|-8-----8---------| 

Chorus 
G|----12-10-9-----------|-10-10-8-7---------|-7-7-7-7\---------|----------------| 
D|------------12-10-9---|-----------10-8-7--|----------4-4-4-4/|-7-7-7-7---7----| 
A|-10-----------------10|------------------8|------------------|---------5---5--| 
E|----------------------|-------------------|------------------|---------------5| 

Outro 
G|---------------------------|-----------------------------| 
D|-------5---------0-5-7-5---|-------5---(5-5-5)-----------| 
A|---------------2---------7\|-------------------2--3--4--5| 
E|-3---3-------3-------------|-3---3-----------------------| 

G|---------------------------|---------------------------| 
D|-------5---------0-5-7-5---|-------5-----7-5---8-7-5---| 
A|---------------2---------7\|-----------------7-------7\| 
E|-3---3-------3-------------|-3---3---------------------| 

G|-----------------------|-------------------| 
D|-------5---------------|-------5-----------| 
A|-------------2--3--4--5|-------------------| 
E|-3---3-----------------|-3---3-------------| 

               (fade out) 
G|-------------4--5--6--7| 
D|-------5---------------| 
A|-----------------------| 
E|-3---3-----------------| 


********************************* 

| / Slide up 
| \ Slide down 
| h Hammer-on 
| (n-n) Fast 

********************************* 
		  

See also:

bass Deep Purple - Into The Fire bass Deep Purple - Burn Ver.(2) bass Deep Purple - Knocking At Your Back Door bass Deep Purple - Smoke On The Water bass Deep Purple - Highway Star bass Deep Purple - Space Truckin'
e-chords

Other versions:

bass Camper Van Beethoven - Eye Of Fatima Pt 1
auto scroll beats size up size down change color hide chords drawings
tab show chords e-chords YouTube Clip e-chords hide all tabs e-chords go to top tab

share