Boogarins

Foi Mal

Boogarins

bass

by  VICTBORGES

save to print version add songbook text version e-mail correct tuner
chordsukulelecavacokeyboardtabbassdrumsharmonicaflute Guitar Pro
close

there isn't a video lesson for this song

chords

Foi Mal

	  		Intro(0:06) 
G|---------------------------------------------------------------------------| 
D|-------333-3-5------333-3-5--------2-2-2-2-------333-3-5--------333-35-----| 
A|0-0--0--------3-3--3--------0-0--0--3---3--0-0--0--------3-3--3--------0-0-| 
E|---------------------------------------------------------------------------| 

Verse 
G|---------------------------------------------------------------------------| 
D|-------333-3-5------333-3-5--------333-3-5----------333-3-5-------333-35---| 
A|0-0--0--------3-3--3--------0-0--0--------3--0-0--0--------3-3--3----------| 
E|---------------------------------------------------------------------------| 

Instrumental 
G|---------------------------------------------------------------------------| 
D|---------------------------------------------------------------------------| 
A|1-1-111-11-1-1-111-1-1-----------------------------------------------------| (4x) 
E|---------------------------------------------------------------------------| 

G|---------------------------------------------------------------------------| 
D|---------------------------------------------------------------------------| 
A|-3-3-333-33-3-3-333-3-3----------------------------------------------------| (4x) 
E|3--------------------------------------------------------------------------| 

Verse 
G|---------------------------------------------------------------------------| 
D|-------333-3-5------333-3-5--------333-3-5----------333-3-5-------333-35---| 
A|0-0--0--------3-3--3--------0-0--0--------3--0-0--0--------3-3--3----------| 
E|---------------------------------------------------------------------------| 
		  

See also:

bass Legião Urbana - Quando o sol bater na janela do teu quarto bass RPM - Louras geladas bass Engenheiros do Hawaii - Toda forma de poder bass Raul Seixas - Al Capone bass Skank - Tanto bass Jota Quest - Amor Maior
e-chords

Other versions:

bass Boogarins - Foi Mal
auto scroll beats size up size down change color hide chords drawings
tab show chords e-chords YouTube Clip e-chords hide all tabs e-chords go to top tab

share