Bob Marley

home > Bob Marley

Caution Bass Tab

Bob Marley

Difficulty: AdvancedAdvanced

by Junior+Herbsman

tuner correct add songbook print version text version save to e-mail
chordsukulelecavacokeyboardtabbassdrumsharmonicsflute Guitar Pro
chords

Caution

Year: 1970 - Album: Best Of The Wailers

Key:  Em More
Caution Key BmBm
Caution Key CmCm
Caution Key C#mC#m
Caution Key DmDm(one step down)
Caution Key D#mD#m(half step down)
Caution Key EmEm(original key)
Caution Key FmFm(half step up)
Caution Key F#mF#m(one step up)
Caution Key GmGm
Caution Key G#mG#m
Caution Key AmAm
Caution Key A#mA#m
  		Introdução (Solo Guitarra) - Repetir 4X até entrar no Canto 
|--------------------------------------------------------| 
|-----------------------------7--------------------------| 
|--------------------5---7--------7--7--7------5--5--5---| 
|---5--5-------8--8--------------------------------------| 
 
 
 
 
Canto 2 (2X) 
|--------------------------------------| 
|--------------------5-----------------| 
|---------2--2--3--5---0-0-0---0-0-0---| 
|---3--3-------------------------------| 
 
|--------------------------------------| 
|-------------------3------------------| 
|--------0--0--2--3---3-3-3---3-3-3----| 
|---1--1-------------------------------| 
 
 
 
Canto 3 (4X) 
|---------------------9----------------| 
|----------------7--9------------------|Repetir Canto 2 
|---7--7--10--10-----------------------| 
|----------------------5-5-5---5-5-5---| 
 
 
Repetir Introdução 6X 
Repetir Canto 2 
Repetir Canto 3 até o Final 
	  

Search Paypal
auto scroll beats size up size down change color hide chords drawings
tab show chords e-chords YouTube Clip e-chords hide all tabs e-chords go to top tab