Blindside

Teddybear

Blindside

bass

by  ANDINHO G3

save to print version add songbook text version e-mail correct tuner
chordsukulelecavacokeyboardtabbassdrumsharmonicaflute Guitar Pro
close

there isn't a video lesson for this song

chords

Teddybear

	  		Main Riff: 
 
G|--------------------------------------------------------- 
D|--------------------------------------------------------- 
A|----------3/5-5-5---------------------------------------- 
E|--0-0-0-0----------0-0-0-0-3-5-5-5----------------------- 
 
Pre Chorus: 
 
G|--------------------------------------------------------- 
D|--------------------------------------------------------- 
A|--------------------------------------------------------- 
E|--1-1---1-2-2-------------------------------------------- 
 
 
G|--------------------------------------------------------- 
D|--------------------------------------------------------- 
A|--------------------------------------------------------- 
E|--4-5-0-4-5-0-------------------------------------------- 
 
Bridge: 
 
G|--------------------------------------------------------- 
D|--------------------------------------------------------- 
A|----7-6---5-4-0------------------------------------------ 
G|--0-----5------------------------------------------------ 
 

		  

See also:

bass Five Iron Frenzy - One Girl Army bass Blindside - Liberty bass Five Iron Frenzy - My Evil Plan To Save The World (ver. 2) bass 12-Stones - In my head bass Five Iron Frenzy - Me Oh My bass Five Iron Frenzy - Wizards Need Food Badly
e-chords

Other versions:

bass Blindside - Teddybear
auto scroll beats size up size down change color hide chords drawings
tab show chords e-chords YouTube Clip e-chords hide all tabs e-chords go to top tab

share