Toto

home > Toto

Girl Goodbye Tab

Toto

Difficulty: ExpertExpert

tuner correct add songbook print version text version save to e-mail
chordsukulelecavacokeyboardtabbassdrumsharmonicsflute Guitar Pro
chords

Girl Goodbye

	  Intro (Keyboard)                                                                  
                                                                                 
  | Em/B     |B       |Em/B     |B         |  4 X                                
                                                                                 
Riff A                                                                              
                                                                                  
  |-------------------------------------|--------------------------------------|
  |-------------------------------------|--------------------------------------|
  |-------------------------------------|--------------------------------------|
  |-------------------------------------|--------------------------------------|
  |-------------------------------------|-----------------------4----5--5~~----|
  |---5----7------5----7------5-----7---|---5-----7---5---7--------------------|


Riff A' 
      
    P.M. ...............................  P.M. ................................
  |-------------------------------------|--------------------------------------|
  |-------------------------------------|--------------------------------------|
  |-------------------------------------|--------------------------------------|
  |-------------------------------------|--------------------------------------|
  |-------------------------------------|-----------------------4----5--5~~----|
  |---5----7------5----7------5-----7---|----5-----7---5---7-------------------|


Riff A"

  |-------------------------------------|--------------------------------------|
  |-------------------------------------|--------------------------------------|
  |-------------------------------------|------------------------------------2-|
  |-------------------------------------|---------------------0----2----4------|
  |-------------------------------------|-----------0----2---------------------|
  |---5----7------5----7------5-----7\--|------2-------------------------------|


Riff B

  |--------7----7---------7-------------|-/-9------9---9---X-------------------|
  |--------8----8---------8-------------|-/10-----10--10---X--7----------------|
  |--------7----7------X--7-------------|-/-9------9---9---X--7----------------|
  |--------9----9------X--9-------------|---------------------9----------------|
  |-------------------------------------|--------------------10----------------|
  |-------------------------------------|--------------------------------------| 


  |-------------------------------------|--------------------------------------|
  |-------------------------------------|--------------------------------------|
  |-------------------------------------|--------------------------------------|
  |-------------------------------------|--------------------------------------|
  |-------------------------------------|--------------------------------------|
  |-------------------------------------|--------------------------------------| 

  
Riff C
   
  |-------------------------------------|---------------------5-------6--------|
  |----------8--------8---10---8----7---|---------------------5-------6--------|
  |----------7--------7----7---7----7---|---------------------6-------7--------|
  |-------------------------------------|--------------------------------------|
  |-------------------------------------|--------------------------------------|
  |-------------------------------------|--------------------------------------| 


Riff C'
   
  |-------------------------------------|---------------------5----------------|
  |----------8--------8---10---8----7---|---------------------5----------------|
  |----------7--------7----7---7----7---|---------------------6----------------|
  |-------------------------------------|--------------------------------------|
  |-------------------------------------|--------------------------------------|
  |-------------------------------------|--------------------------------------| 

Riff D
  
  |-------------------------------------|--------------------------------------|
  |-------------------------------------|--------------------------------------|
  |-------------------------------------|--------------------------------------|
  |-------------------------------------|-------------------------4------------|
  |---5----7------5----7------5-----7---|---5------7----5----7\----------------|
  |-------------------------------------|--------------------------------------|

Riff E
  
  |-------------------------------------|--------------------------------------|
  |-------------------------------------|--------------------------------------|
  |----5----------------0-----2---------|--------------------------------------|
  |----5----------------0-----2---------|--------------------------------------|
  |----3----------------X-----0---------|--------------------------------------|
  |---------------------3---------------|--------------------------------------| 

   Intro


   Riff A x4

  VERSE

           Riff A'------------------ Riff A'----------------
 Well, I'm out on the road, and the devil's got my soul. 
 

         Riff B---------------------------- Riff A'--------------
 And I'm lookin' for the Lord in New York City

  
          Riff A'------------------Riff A'-----------------         
 Hey, I'm out on the run. Got some heat, got a gun


          Riff B---------------------------- Riff A' 
 If they don't find me soon, it'll be damn pity


   Riff A"
  

  CHORUS
    
         Riff C-----------------------------------         
 So it's Goodbye, girl, goodbye girl, girl goodbye


   Riff A'

         Riff C'----------------------------------------
 It's so hard to see the truth with the sun in your eyes.
 
   Riff D
 
 Riff C------------------------------------  
 Goodbye, girl, goodbye, girl, girl goodbye

   Riff A'
 

 Riff A'-------------Riff E-------------------------
                     Must be in the way that you cry

 Riff A'-------------Riff E-------------------------
                     Must be in the way that you cry

 Riff A'-------------Riff E-------------------------      
                     Must be in the way that you cry

  Riff A x4

  VERSE -> Chorus 
 
  Solo guitar with Riff A

  Intro 2X
    
  Riff A 4X

  Chorus
  
  Riff A ... 
	  

there isn't a video lesson for this song

request
Full key step upFull key step up
Half key step upHalf key step up
Half key step downHalf key step down
Full key step downFull key step down
Search
auto scroll beats size up size down change color hide chords drawings
tab show chords e-chords YouTube Clip e-chords hide all tabs e-chords go to top tab