Take That

Patience (intro)

Take That

tabs Beginner beginner

by  EUROPEU

save to print version add songbook text version e-mail correct tuner
chordsukulelecavacokeyboardtabbassdrumsharmonicaflute Guitar Pro
close

there isn't a video lesson for this song

chords

Patience (intro)

	  		INTRO: 
 
E||-----------|----------|------------|---------------------|| 
B||-----------|----------|------------|---------------------|| 
G||-----3-----|------3---|-------8----|------10-------------|| 
D||---0---0---|----3---3-|-----8---8--|----10---------------|| 
A||-----------|--1-------|---6--------|--8------------------|| 
E||--3--------|----------|------------|---------------------|| 
 
 
Pre-Chorus 
 
E||-----------|------------|| 
B||-----------|------------|| 
G||-------8---|------10----|| 
D||-----8---8-|----10--10--|| 
A||---6-------|--8---------|| 
E||-----------|------------|| 
            x2           x2 
 
 
Chorus 
 
E||-----------|----------|------------|---------------------|| 
B||-----------|----------|------------|---------------------|| 
G||-----3-----|------3---|-------8----|------10-------------|| 
D||---0---0---|----3---3-|-----8---8--|----10---------------|| 
A||-----------|--1-------|---6--------|--8------------------|| 
E||--3--------|----------|------------|---------------------|| 
 

		  

See also:

tabs Simply Red - For yours babies tabs Craig David - Unbelievable tabs Dido - Here With Me tabs Mcfly - Five Colours In Her Hair (solo) tabs Sting - Fields Of Gold tabs John Lennon - Imagine (ver. 2)
e-chords

Other versions:

tabs Guns N' Roses - Patience tabs Porches - Patience tabs Take That - Patience (intro) tabs Take That - Patience (ver. 2) tabs Guns N' Roses - Patience (ver. Luau) tabs Take That - Patience Intro
auto scroll beats size up size down change color hide chords drawings
tab show chords e-chords YouTube Clip e-chords hide all tabs e-chords go to top tab

share