Toto

home > Toto

Africa Tab

Toto

Difficulty: BeginnerBeginner

by europeu

tuner correct add songbook print version text version save to e-mail
chordsukulelecavacokeyboardtabbassdrumsharmonicsflute Guitar Pro
chords

Africa

Key:  B More
Africa Key F#F#
Africa Key GG
Africa Key G#G#
Africa Key AA(one step down)
Africa Key A#A#(half step down)
Africa Key BB(original key)
Africa Key CC(half step up)
Africa Key C#C#(one step up)
Africa Key DD
Africa Key D#D#
Africa Key EE
Africa Key FF
	  ------------------------------------------------------- 
-----17b18b17p15----15--------------------------------- 
----------------h17----15------------------------------ 
--------------------------17\-------------------------- 
------------------------------------------------------- 
------------------------------------------------------- 
 
------------------------------------------------------- 
---------------17-------17----------------------------- 
------19b21-------20b21----20b21b20b22~---------------- 
------------------------------------------------------- 
------------------------------------------------------- 
------------------------------------------------------- 
 
------------------------------------------------------- 
------------------------------------------------------- 
---22b24--22b24b22p19--22-{b}24--22b24~------22--19---- 
------------------------------------------------------- 
------------------------------------------------------- 
------------------------------------------------------- 
 
    major third bends... 
------------------------------------------------------- 
---23b27b23p20----------------------------------------- 
---------------22p19-22b26b22p19----------------------- 
---------------------------------22p20----------------- 
------------------------------------------------------- 
------------------------------------------------------- 
 
-----------------------------------------------------17 
--------------------------------------------------18--- 
---22b24--22b24b22p19--22-{b}24--22b24~\------/19------ 
------------------------------------------------------- 
------------------------------------------------------- 
------------------------------------------------------- 
 
---20p17-18p17----17-------------------------------------- 
--------------h20----18p17h20----18p17----18p17\15h17p15-- 
------------------------------19-------19----------------- 
---------------------------------------------------------- 
---------------------------------------------------------- 
---------------------------------------------------------- 
 
------------------------------------------------------- 
------------------------13----------------------------- 
--17p14h17p14h16p13-15------14--15p14p12~~12\---------- 
------------------------------------------------------- 
------------------------------------------------------- 
------------------------------------------------------- 
 
------------------------------------------------------------ 
------------------------------18\13-13------15-------------- 
---------13/14h17-14/15h17/19-----------15------{14b}15b14-- 
--/15h17---------------------------------------------------- 
------------------------------------------------------------ 
------------------------------------------------------------ 
 
------------------------------------------------------- 
------------------------------------------------------- 
--12------15--12~----------------15----15----15----15-- 
------15------------15\------/15----15----15----15----- 
------------------------------------------------------- 
------------------------------------------------------- 
 
------------------------------------------------------- 
------------------------------------------------------- 
-----17----15----17b19--15-17b19-15-17-15-------------- 
--15----15----15---------------------------17~\-------- 
------------------------------------------------------- 
------------------------------------------------------- 
 
----------10--  repeat this some arbitrary number of times, 
---/13b15-----  speeding up as you go, then slide up... 
-------------- 
------------------------------------------------------- 
------------------------------------------------------- 
------------------------------------------------------- 
 
----------12---------12-------------------------------- 
---/15b17-----15b17------16b18~------------------------ 
------------------------------------------------------- 
------------------------------------------------------- 
------------------------------------------------------- 
------------------------------------------------------- 
 
---------15-----15h18p15----15--------------15--------------- 
--18b20------18----------18----18p15------15----------------- 
-------------------------------------17b19-----17b19b17p15--- 
------------------------------------------------------------- 
------------------------------------------------------------- 
------------------------------------------------------------- 
 
--------------------------------------------------------------- 
--------------------------------------------------------------- 
-------15------------------------------------------------------ 
-17-15----17-14----17----14------------------------------------ 
----------------17----17----17--14----14-17-15----14----------- 
-----------------------------------17----------18----15--13~--- 
  
  
    
 
  

	  

there isn't a video lesson for this song

request
Search
auto scroll beats size up size down change color hide chords drawings
tab show chords e-chords YouTube Clip e-chords hide all tabs e-chords go to top tab