Abyssinians

home > Abyssinians

African Race (ver.2) Tab

Abyssinians

Difficulty: nolevelnolevel

by MarceloBongoMan

tuner correct add songbook print version text version save to e-mail
chordsukulelecavacokeyboardtabbassdrumsharmonicsflute Guitar Pro
chords

African Race (ver.2)

  		Abyssinians 
Partition transcrite par guRa 
 
 
Greetings from Sweden!  
This track have been missing on this site for way  
too long so I decided to do something about it!  
 
{INTRO}  
 
The chords to the intro are:  
1 C - 1 Am - 1 Dm - 1 E  
1 C - 1 Am -  Dm -  E- 1 Am  
 
You have to listen to the track to understand it, but then it should work out just fine!  
So take the chords and then play the strings in the following order.  
 
--------------5--------------  
--------3---------6-------8--  
----2-----------------7------  
----------------------------- (-- on the Dm chord  
1----------4----------------- (-- on the C and Am chord   
----------------------------- (-- on the E chord  
 
Number 1 and 4 changes with the chords. Look above.  
I really hope you understand this one!   
-------------------------------------  
 
{THE SONG}  
 
{2 Am means two riddimstrikes of the Am-chord.  
 
-------------------------------------  
"We are the slave descendants of the African race,   
African race, the African race.  
We are the slave descendants of the African race,   
where proud is no disgrace."  
 
2 C - 2 Am - 2 Dm - 2 E  
2 C - 2 Am - 1 Dm - 1 E - 2 Am  
-------------------------------------  
 
-------------------------------------  
"They swapped my brother now, also, my sister too  
for a drink of wine, so they could drink and be merry,   
so they could drink and be merry."  
 
2 Dm - 2 Am - 2 E - 2 Am  
2 Dm - 2 Am - 2 E - 2 Am - 2 E - 2 Am  
-------------------------------------   
 

	  

Full key step upFull key step up
Half key step upHalf key step up
Half key step downHalf key step down
Full key step downFull key step down
Search Paypal
auto scroll beats size up size down change color hide chords drawings
tab show chords e-chords YouTube Clip e-chords hide all tabs e-chords go to top tab