Tori Kelly

home > Tori Kelly > chords

Fill A Heart Tab

Tori Kelly

Difficulty: ExpertExpert

by sabrjoao

tuner correct add songbook print version text version rtf version e-mail
chordsukulelecavacokeyboardtabbassdrumsharmonicsflute Guitar Pro
chords

Fill A Heart

	  

Capo 2 

Intro: E 
      Asus2 

    
    E    Asus2 
E|-------------| 
A|--2----------| 
D|--2-----2----| 
G|--1-----2----| 
B|-------------| 
e|-------------| 

This is the Pre-Chorus (repeat till chorus) 

No one should be left alone in the dark.. 


E|--2----------------| 
A|--------4-----2----| 
D|--2-----6-----4----| 
G|--2-----6-----4----| 
B|-------------------| 
e|-------------------| 

if we come together.. 
  
E|-----------| 
A|-----------| 
D|--2--------| 
G|--2--------| 
B|-----------| 
e|-----------| 

This is the Chorus  

We can change the outcome, if we join in reach out a hand... 

E|---------2------4------5-----| 
A|--2--------------------------| 
D|--2------2------4------6-----| 
G|--1------2------4------6-----| 
B|-----------------------------| 
e|-----------------------------| 

You and I is were it starts... 

E|--2------4------5----| 
A|---------------------| 
D|--2------4------6----| 
G|--2------4------6----| 
B|---------------------| 
e|---------------------| 

This is the Bridge 

E|--2------4-------7-------5-------| 
A|---------------------------------| 
D|--2------4-------7-------6-------| 
G|--2------4-------7-------6-------| 
B|---------------------------------| 
e|---------------------------------| 

Outro Asus2 

 
	  

Request the video "Fill A Heart"  -  Send "Fill A Heart" Ringtone to your Cell

there isn't a video lesson for this song

request
Full key step upFull key step up
Half key step upHalf key step up
Half key step downHalf key step down
Full key step downFull key step down
Search
auto scroll beats size up size down change color hide chords drawings
tab show chords e-chords YouTube Clip e-chords hide all tabs e-chords go to top tab