The Legend of Zelda

home > The Legend... > chords

Ocarina of Time - Lost Woods Tab

The Legend of Zelda

Difficulty: BeginnerBeginner

by HtagBgha

tuner correct add songbook print version text version rtf version e-mail
chordsukulelecavacokeyboardtabbassdrumsharmonicsflute Guitar Pro
chords

Ocarina of Time - Lost Woods

	  Zelda Ocarina Of Time 
 
Lost Woods 
 
|--------------------------------12-----------------------------------| 
|-------12---------12---------12----15---12-13-12---------------------| 
|----14---------14---------14---------------------12------------12----| 
|-15---------15---------15---------------------------14---12-14----14-| 
|---------------------------------------------------------------------| 
|---------------------------------------------------------------------| 
 
|--------------------------------12------------12---------------------| 
|-------12---------12---------12----15---12-13----12------12----------| 
|----14---------14---------14------------------------12------12-------| 
|-15---------15---------15--------------------------------------12-14-| 
|---------------------------------------------------------------------| 
|---------------------------------------------------------------------| 
 
|------------------------------------| 
|-----------------------13-----------| 
|------------12-14-16------16--------| 
|-12-14-15--------------------14-----| 
|------------------------------------| 
|------------------------------------| 
 
|------------------------------------| 
|-----------------------13-15-17-----| 
|------------12-14-16----------------| 
|-12-14-15---------------------------| 
|------------------------------------| 
|------------------------------------| 
 
|------------------------------------| 
|-----------------------13-----------| 
|------------12-14-16------16--------| 
|-12-14-15--------------------14-----| 
|------------------------------------| 
|------------------------------------| 
 
|------------------------------------10----12-13---10-12---------| 
|------------------10----12-10-13-12----13-----------------------| 
|-------10-9-12-10----12-----------------------------------------| 
|-12-10----------------------------------------------------------| 
|----------------------------------------------------------------| 
|----------------------------------------------------------------| 
 
Transcribed By Johan Lindgren  

	  

Request the video "Ocarina of Time - Lost Woods"  -  Send "Ocarina of Time - Lost Woods" Ringtone to your Cell

there isn't a video lesson for this song

request
e-chords
Search
auto scroll beats size up size down change color hide chords drawings
tab show chords e-chords YouTube Clip e-chords hide all tabs e-chords go to top tab