Sixx Am

home > Sixx Am > chords

Lies Of The Beautiful People Tab

Sixx Am

Difficulty: ExpertExpert

by tercmoraes

tuner correct add songbook print version text version rtf version e-mail
chordsukulelecavacokeyboardtabbassdrumsharmonicsflute Guitar Pro
chords

Lies Of The Beautiful People

	  
Main riff 
e|---------------------------------|              |------|               |-----| 
B|---------------------------------|              |------|               |-----| 
G|.-------------------------------.|              |------|               |-----| 
D|---------------------------------|              |------|               |-----| 
A|.-0h2-22520-2-22230-0h2-22520-2-.|              |22235-|               |2221-| 
D|--0h2-22520-2-22230-0h2-22520-2--| First Ending |22235-| Second Ending |2221-| 

Verse					Verse Fill 
e|-----------------------------------| 		e|--------------------------| 
B|-----------------------------------|		B|--------------------------| 
G|-----------------------------------|		G|-555511111111777711111111-| 
D|-----------------------------------|		D|--------------------------| 
A|-0h22520-0h2222575-0h225202222-----|		A|-3333-9-9-9-95555-9-9-9-9-| 
D|-0h22520-0h2222575-0h2252022222pbr-|		D|--------------------------| 

Pre-chorus				Pre-chorus ending 
e|-----------------------------------|		e|-----------------------------|  
B|-----------------------------------|		A|-----------------------------| 
G|-7/9-XX-9\7-X-11-X-12-X-12-12\11\9-|		G|-7/9-X-7/9-X-7/9-X-9-XX-99\7-| 
D|-----------------------------------|		D|-----------------------------| 
A|-5/7-XX-7\5-X--9-X-10-X-10-10\-9\7-|		A|-5/7-X-5/7-X-5/7-X-7-XX-77\5-| 
D|-----------------------------------|		D|-----------------------------| 

Chorus 
e|-------------------------------------------------------------------------------------------|  
B|-------------------------------------------------------------------------------------------| 
G|----------------------------12----------------------7--------------------------------------| 
D|----------------------------12----------------------7--------------------------------------| 
A|-12h141414-151412-14-141414---1412-7h999-1097-9-999--97-10h121212-141210-12-121212-14121012| 
D|-12h141414-151412-14-141414---1412-7h999-1097-9-999--97-10h121212-141210-12-121212-14121012| 

e|--------------------------|  
B|--------------------------| 
G|--------------------------| 
D|--------------------------| 
A|-5h7-X-7-XX-5h7-X-7-XX-75-| 
D|-5h7-X-7-XX-5h7-X-7-XX-75-| 

Solo rhythm 
e|-----------------|------------------| 
B|-----------------|------------------| 
G|-----------------|------------------| 
D|-----------------|------------------| 
A|0h2-2-2-2-2-2----|0h2-2-2-2-5--5~---| 
D|0h2-2-2-2-2-2h3~-|0h2-2-2-2--3---3~-| 

Solo A  
e|-------12h15p12----14p12--15p12--14p12-----12h14p12----15p12-----------|  
B|-----12----------12----------------------12----------12-------15p12--13| 
G|---12----------12-------12-----12------12----------12-------12-----12--| 
D|-14----------------------------------14--------------------------------| 
A|-----------------------------------------------------------------------| 
D|-----------------------------------------------------------------------| 

Solo B                                            	     Solo C 
e|----------------------------------------2/|slide all the      |------|  
B|----------------------------------------2/|way up the neck    |------| 
G|---989--------989/12\11\9---------------2/|                   |-14bp-| 
D|-9----9-89-9------------------------------|                   |------| 
A|------------------------------------------|                   |------| 
D|--------------------------9\545\2-9\54\2--|                   |------| 
                                             
Solo D 
e|-12p8--8----------------8h12p8--8--------------9h|  
B|-------------------------------------------------| 
G|-----12--12p9h12p9--9---------12-12p9h12p9--9----| 
D|------------------10-10-------------------10-10--| 
A|-------------------------------------------------| 
D|-------------------------------------------------| 

e|-12p9--9---------------9h12p9--9--------------10h|  
B|-------------------------------------------------| 
G|-----12-12p9h12p9--9---------12-12p9h12p9--9-----| 
D|-----------------11-11-------------------11-11---| 
A|-------------------------------------------------| 
D|-------------------------------------------------| 


e|-14p10--10-----------------10h14p10--10-----------------11h|  
B|-----------------------------------------------------------| 
G|------14--14p11h14p11--11----------14--14p11h14p11--11-----| 
D|---------------------12--12-----------------------12--12---| 
A|-----------------------------------------------------------| 
D|-----------------------------------------------------------| 


e|-14p11--11-----------------11h14p11--11-----------------12~-|  
B|------------------------------------------------------------| 
G|------14--14p11h14p11--11----------14--14p11h14p11--11------| 
D|---------------------13--13-----------------------13--13----| 
A|------------------------------------------------------------| 
D|------------------------------------------------------------| 
 
	  

Request the video "Lies Of The Beautiful People"  -  Send "Lies Of The Beautiful People" Ringtone to your Cell

there isn't a video lesson for this song

request
Full key step upFull key step up
Half key step upHalf key step up
Half key step downHalf key step down
Full key step downFull key step down
e-chords
Search
auto scroll beats size up size down change color hide chords drawings
tab show chords e-chords YouTube Clip e-chords hide all tabs e-chords go to top tab