John Mayer

home > John Mayer > chords

Half Of My Heart Tab

John Mayer

Difficulty: BeginnerBeginner

by europeu

tuner correct add songbook print version text version rtf version e-mail
chordsukulelecavacokeyboardtabbassdrumsharmonicsflute Guitar Pro
chords

Half Of My Heart

	  Intro/Verse  
e|---------------------------------------------------------------------------| 
B|-----------------------------------------------------------------6---------| 
G|----------0------------------------------------5-------------7-------------| 
D|-------3----------------0------0-----------5-------------7-----------------| 
A|----1---------------3------3-----------3-------------5---------------------| 
E|----------------1----------------------------------------------------------| 

(mid way through the verse john stops to play chords like these) 
    Bb      F       C     Dm 
e|----------1----------------------------------------------------------------| 
B|--0-------1-------0-----6--------------------------------------------------| 
G|--3-------2-------5-----7--------------------------------------------------| 
D|--3-------3-------5-----7--------------------------------------------------| 
A|--1-------3-------3-----5--------------------------------------------------| 
E|----------1----------------------------------------------------------------| 

Chorus (same chords as above just in a faster beat) 
    Bb      F       C     Dm 
e|----------1----------------------------------------------------------------| 
B|--0-------1-------0-----6--------------------------------------------------| 
G|--3-------2-------5-----7--------------------------------------------------| 
D|--3-------3-------5-----7--------------------------------------------------| 
A|--1-------3-------3-----5--------------------------------------------------| 
E|----------1----------------------------------------------------------------| 

Fill that happens at 1:25 
      F     C     Dm 
e|----1----------------------------------------------------------------------| 
B|----1-----0------6---------------------------------------------------------| 
G|----2-----5------7---------------------------------------------------------| 
D|----3-----5------7---------------------------------------------------------| 
A|----3-----3------5---------------------------------------------------------| 
E|----1----------------------------------------------------------------------| 



bridge(this is what im getting) 
      F       C      Dm     Bb 
e|----1----------------------------------------------------------------------| 
B|----1-------0------6------0------------------------------------------------| 
G|----2-------5------5------3------------------------------------------------| 
D|----3-------5------5------3------------------------------------------------| 
A|----3-------3------7------1------------------------------------------------| 
E|----1----------------------------------------------------------------------| 
	  

Request the video "Half Of My Heart"  -  Send "Half Of My Heart" Ringtone to your Cell

there isn't a video lesson for this song

request
Full key step upFull key step up
Half key step upHalf key step up
Half key step downHalf key step down
Full key step downFull key step down
Search
auto scroll beats size up size down change color hide chords drawings
tab show chords e-chords YouTube Clip e-chords hide all tabs e-chords go to top tab