George Benson

home > George Ben... > chords

Breezin Tab

George Benson

Difficulty: ExpertExpert

tuner correct add songbook print version text version rtf version e-mail
chordsukulelecavacokeyboardtabbassdrumsharmonicsflute Guitar Pro
chords

Breezin

	   
Intro 
 
key signture 3/4 
      Dmaj9           Fmaj9       Amaj9      Fmaj9     Dmaj9          
E-----------------|-----3------|----7-----|----3----|------------------------ 
B-----5-----------|-----1------|----5-----|----1----|----5------------------- 
G-----6-----------|-----2------|----6-----|----2----|----6------------------- 
D-----4-----------|-----2------|----6-----|----2----|----4------------------- 
A-----5-----------|------------|----0-----|---------|----5------------------- 
E-----------------|-----1------|----------|----1----|------------------------ 
 
guitar one 
       D                     Bm7	  Em7		    G/A 
E------------------------------------------------------------------  
B------3---------------------3------------0-----------------3------  
G------2---------------------2-----2------0-----------------4------  
D------3------------2----4---4-----2(h)4--2------2---4--5---5------ 
A------5--------5------------2----------------2-------------------- 
E-----------5-----------------------------------------------5------ 
 
       D                     Bm7	  Em7		    G/A 
E--------------------------------------------------------------------  
B------3---------------------3------------0-----------------3---3--3-  
G------2---------------------2-----2------0-----------------4---4--4-  
D------3------------2----4---4-----2(h)4--2------2---4--5---5---5--5- 
A------5--------5------------2----------------2---------------------- 
E-----------5-----------------------------------------------5---5--5- 
 
You can have a bass line and a guitar strumming the chords i jst like being  
technical and usin unusual guitar chords one guitar can strum these chords  
while the lead guitarist can do the pickin which ill tab for u. 
 
      Dmaj9            Bm7         Emaj9      G/A              
E-----------------|-----2------|----------|------------ 
B-----5-----------|-----3------|----8-----|-----3------ 
G-----6-----------|-----2------|----8-----|-----4------ 
D-----4-----------|-----4------|----5-----|-----5------ 
A-----5-----------|-----2------|----8-----|------------ 
E-----------------|------------|----------|-----5------Play this through out whole song 
 
0:31 
E---12--12--12--12--12--12--12--12----10--14-14-14-14-14-14-14-14--12- 
B---14--14--14--14--14--14--14--14----12--15-15-15-15-15-15-15-15--14- 
G---------------------------------------------------------------------  
D---------------------------------------------------------------------  
A---------------------------------------------------------------------  
E---------------------------------------------------------------------  
 
repeat 6x on last time end with....1:03 
E----14---10---14--------------------------------------------  
B----15---12---15--------------------------------------------  
G------------------------------------------------------------ 
D------------------------------------------------------------ 
A------------------------------------------------------------ 
E------------------------------------------------------------ 
 
Verse melody(eletric)1:05 (guitar two) 
E---------------------------------------------------------------------------------------------- 
B----------------------------------10(h)12(P)10-------------10(h)12(p)10----------------------- 
G-------------------9--11---12----------------------------------------------9(h)11------------- 
D------9---11---12-------------------------------------------------------------------12--9----- 
A--12---------------------------------------------------------------------------------------12- 
E---------------------------------------------------------------------------------------------- 
 
E------------------------------------------------  
B------------------------------------------------  
G------------------------------------------------ 
D------------------------------------------------ 
A---7(h)9(p)7---7(h)9(p)7---7----7(h)9(p)7------- 
E------------------------------------------------ 
 
1:16 
E---------------------------------------------------------------------------------------------- 
B----------------------------------10(h)12(P)10-------------10(h)12(p)10----------------------- 
G-------------------9--11---12----------------------------------------------9(h)11------------- 
D------9---11---12-------------------------------------------------------------------12--9----- 
A--12---------------------------------------------------------------------------------------12- 
E---------------------------------------------------------------------------------------------- 
 
1:28 
E----------------------------------------------------------------------------------10--9------- 
B----------------------------------10(h)12(P)10------10(h)12(p)10---10(h)12(p)10--------------- 
G-------------------9--11---12----------------------------------------------------------------- 
D------9---11---12----------------------------------------------------------------------------- 
A--12------------------------------------------------------------------------------------------ 
E---------------------------------------------------------------------------------------------- 
 
E-------------------------------------------------------------------  
B---10(h)12(p)10----------------------------------------------------  
G------------------9(h)11--------------------9\7-------9\7---9\7---- 
D--------------------------12----9----------11\9------11\9--11\9---- 
A-------------------------------------12----------12---------------- 
E------------------------------------------------------------------- 
 
1:40 
E------------------------------------------------------------------------------------------------ 
B----------------------------------10(h)12(P)10------10(h)12(p)10---10(h)12(p)10----------------- 
G-------------------9--11---12-------------------------------------------------------------12-10- 
D------9---11---12------------------------------------------------------------------11--12------- 
A--12-------------------------------------------------------------------------------------------- 
E------------------------------------------------------------------------------------------------ 
 
E------------------------------------------- 
B---10(h)12(p)10---------------------------- 
G------------------9(h)11------------------- 
D--------------------------12----9----12---- 
A------------------------------------------- 
E------------------------------------------- 
 
B-verse 1:52 
E-------------------------------------------------------------------------------10--  
B------------------/7--------------------------------------------------------------- 
G------------7-----------7--------7---7----------------------/7------------/7-------  
D---7---9---------------------9------------9--------------7-------7-----7----------- 
A------------------------------------------------7----9-----------------------------  
E----------------------------------------------------------------------------------- 
 
E--------------------------------------------------------------------------------------  
B-------------------------------------------------------------------/7-----------------  
G----------------7---\---9-----7---------7----7------------------7-------7-------7-----  
D----7------9-----------------------9--------------9----7----9---------------9-------9- 
A-------------------------------------------------------------------------------------- 
E-------------------------------------------------------------------------------------- 
 
E----------------14---------------------------------------------13--12--10------14--17--  
B---------------------------15---12----15---12------------------------------12----------  
G----------------11-----------------------------------------7---10---9---7------11--14--  
D-----7----9----------------12----9----12----9-----7----9--------------------9---------- 
A---------------------------------------------------------------------------------------  
E--------------------------------------------------------------------------------------- 
 
E----------------14---------------------------------------------13--12--10------14--17--  
B---------------------------15---12----15---12------------------------------12----------  
G----------------11-----------------------------------------7---10---9---7------11--14--  
D-----7----9----------------12----9----12----9-----7----9--------------------9---------- 
A---------------------------------------------------------------------------------------  
E--------------------------------------------------------------------------------------- 
 
Verse melody 2:15 
E----------------------------------------------------------------------------------------------- 
B----------------------------------10----------------------------------------------------------- 
G-------------------9--11---12----------------------9(h)11-------------------------------------- 
D------9---11---12-----------------------------------------------12--9------------9------------- 
A--12--------------------------------------------------------------------12---12------9----10--- 
E----------------------------------------------------------------------------------------------- 
 
E---------------------------------------------- 
B----------------------------------------------  
G---------------------------------------------- 
D---------------------------------------------- 
A------12-----12-----12------------------------ 
E---------------------------------------------- 
 
E---------------------------------------------------------------------------------------------- 
B----------------------------------10(h)12(P)10---10(h)12(p)10---10(h)12(p)10----10(h)12(p)10-- 
G-------------------9--11---12----------------------------------------------------------------- 
D------9---11---12----------------------------------------------------------------------------- 
A--12------------------------------------------------------------------------------------------ 
E---------------------------------------------------------------------------------------------- 
 
E----10----9----------------------------------------------------------------------- 
B-------------10(h)12(P)10---10(h)12(p)10---10(h)12(p)10--------------------------- 
G-------------------------------------------------------------9(h)11--------------- 
D----------------------------------------------------------------------12---9------ 
A-------------------------------------------------------------------------------12- 
E---------------------------------------------------------------------------------- 
 
 
^=fullbend +=1/2bend 
 
Solo 2:38 
E---------------------------------10---10---------------------------------------------------- 
B--------10--10--------10---10--------------------10----12----------------------------------- 
G--9h11----------9h11------------------------11----------------------------------------9h11-- 
D------------------------------------------------------------12p11--11p9--9------------------ 
A----------------------------------------------------------------------------12---12--------- 
E-------------------------------------------------------------------------------------------- 
                     ^ 
E-------------------------------------------------10-----------10h12----10h12---------  
B---------------10-----------------10h12----------------------------------------------  
G--11-------12-------9----7----7-----------7---7-------7---7--------------------------  
D------------------------------------------------------------------------------------- 
A------------------------------------------------------------------------------------- 
E------------------------------------------------------------------------------------- 
				+	      +              +hold the bend 
E--10------10---------------10--13-------10--13---------10--13--13--13---13---13--  
B------12--------12---10h12--------10h12---------10h12---------------------------- 
G--------------------------------------------------------------------------------- 
D--------------------------------------------------------------------------------- 
A--------------------------------------------------------------------------------- 
E--------------------------------------------------------------------------------- 
             ^    +    + 
E--10----------------------------------------------------------------------------------  
B------10---13---13---13---10--------------------------10---------------------------10-  
G--------------------------------------------12---12-------11--------------------11---- 
D------------------------------12---12---12--------------------12---------9--12-------- 
A-----------------------------------------------------------------12--10--------------- 
E-------------------------------------------------------------------------------------- 
            +                          + 
E- 10--10--13--13p12p10------10-------13-----  
B-----------------------12-------12----------  
G-------------------------------------------- 
D-------------------------------------------- 
A-------------------------------------------- 
E-------------------------------------------- 
    +    +                        ^ 
E--13---13---10------------------------------  
B----------------10------/7------------------  
G----------------------------7----9---------- 
D-------------------------------------------- 
A-------------------------------------------- 
E-------------------------------------------- 
 
E--7-------------------------------------------------------------------------------------- 
B-----10---7-----------------------------------------------------7--10---7----8----10-----  
G-------------7--7-------7----7-----------------7------------7---------------------------- 
D-------------------9--------------9--------9------------9-------------------------------- 
A--------------------------------------10-----------10------------------------------------ 
E----------------------------------------------------------------------------------------- 
 
E--/9-------------------------------------------------------------------   
B-------10----7----10---10---12---10----10h12p10---10h12p10-------------  
G-----------------------------------------------------------------------  
D-----------------------------------------------------------------------  
A-----------------------------------------------------------------------  
E-----------------------------------------------------------------------  
 
E-------------------------------------------------/12--12---10---9--10--9h10--------------------  
B----------------------------------10--12--12/14------------------------------12--12--10-------- 
G-----------------------9--11--12--------------------------------------------------------------- 
D------------9--11--12-------------------------------------------------------------------------- 
A--9--10--12------------------------------------------------------------------------------------ 
E----------------------------------------------------------------------------------------------- 
 
E----------------------------------------------------9-------------  
B--12--10--------12--10-------------------------12-----------------  
G-----------12-----------12---11---9---11---12--------------------- 
D------------------------------------------------------------------ 
A------------------------------------------------------------------ 
E------------------------------------------------------------------ 
   + 
E--9------------------------------------------------------------------------------------------  
B-----10---10---------------------------------------------------------------------------------  
G--------------11---11-------------------12---12--12---9---9---9------------------------------ 
D-----------------------11---11-----------------------------------11---11--11----------------- 
A--------------------------------12--12------------------------------------------12---10---10- 
E--------------------------------------------------------------------------------------------- 
 
E------------------------------------ 
B------------------10-----10h12--10--  
G--11---11----11--------------------- 
D------------------------------------ 
A------------------------------------ 
E------------------------------------ 
                                                                                 + 
E-----------------------------------------------------------7-----------------------------  
B--10----10---10----10---10---10--10/10---10---10---10--10-------------------------------- 
G---------------------------------------------------------------9--9--7--7------10-------- 
D----------------------------------------------------------------------------9------------ 
A----------------------------------------------------------------------------------------- 
E----------------------------------------------------------------------------------------- 
     +       +              + 
E------------------------------------------------------------------------------------------------  
B-------7-----------------------------------------15---------------------------------10----------  
G---10------10-----9----7--10---7---7---7--7/11-------7---7---7---7---7---7---7---/7------7---7-- 
D------------------------------------------------------------------------------------------------ 
A------------------------------------------------------------------------------------------------ 
E------------------------------------------------------------------------------------------------ 
                              + 
E------------------------------------------7--------------------------4----5---------------------  
B--------------------10---------------------------------------6---8-----------8-6---------------- 
G--7---7---7------7------7---10--7--7--7------7---7---7---7-----------------------7-5------------ 
D-------------------------------------------------------------------------------------7-5-------- 
A-----------------------------------------------------------------------------------------8-5---- 
E----------------------------------------------------------------------------------------------9- 

	  

Request the video "Breezin"  -  Send "Breezin" Ringtone to your Cell

there isn't a video lesson for this song

request
Full key step upFull key step up
Half key step upHalf key step up
Half key step downHalf key step down
Full key step downFull key step down
e-chords