Dave Navarro

home > Dave Navar... > chords

Rexall Tab

Dave Navarro

Difficulty: nolevelnolevel

tuner correct add songbook print version text version rtf version e-mail
chordsukulelecavacokeyboardtabbassdrumsharmonicsflute Guitar Pro
chords

Rexall

	   
Preste atenção para as afinações e leiam tudo que escrevi. pode ajudar 
(pay atention to/for the turning and read what I wrote, it can help) 
 
 
 
>>>>intro e versos, acústico (intro and verses, acoustic)<<<< {1} 
 
d||---0------0----------0-0-0-...|| 
A||---0------0----------0-0-0-...|| 
F||---4----2-2----------2-2-2-...|| 
C||--------------4/6----2-2-2-...|| 
G||-2------0-----0------0-0-0-...|| 
D||---------------------------...|| 
 
 
>>>>Guitarra por trás com efeitos acompanhando o violão 
(take a good portugues-english dictionary and translate!) 
 
{2} {3} 
d||--(0)-(0)-(0)-|--0--0--------------|| 
A||--(0)-(0)-(0)-|--------------------|| 
F||--------------|--4--2--------------|| 
C||--------------|--------4/6---------|| 
G||--------------|-------------0------|| 
D||--------------|--------------------|| 
 
 
>>>>Refrão, c/ dist. (chorus, with dist.)<<<< 2x 
 
{4} 
d||--------------------------------------|| 
A||--------------------------------------|| 
F||-------------------5------------------|| 
C||-2--------5--------5-----4------4-4---|| 
G||-2--------5--------3-----4------4-4---|| 
D||-0--------3--------------2------2-2---|| 
 
 
>>>>"Pós-refrão" (after chorus) {essa parte não tem como transcrever assim... 
 tem muito efeito por cima e não dá para dizer com precisão aonde ele toca 
 as notas. Então passei pra tab um jeito legal pra tocar essa parte. 
 Funciona, mas ele faz outra coisa, na realidade. (this is not the right 
 way to play this part, but it sounds very nice. just follow the cords 
 right under the lyrics)} <<<< 
 
{5}"Think I have"... 3x {se tiver dificuldades, acompanhe a letra que 
 esta paralela aos acordes (the lyrics is right under the cords. you 
 should play as fast as it´s in the lyrics, understood?)} 
d||--------------------|| 
A||--------------------|| 
F||-8-----11--11/9-----|| 
C||--------------------|| 
G||-6-----9---9-/7-----|| 
D||--------------------|| 
 
 
>>>>Solo (solo)<<<< 
 
A {6} B {7} 
d|--------------------|-------------------|| 
A|-11---7--9----12-11-|--11----9---5---11-|| 
F|-8----4--6-------8--|--8-----6---2---8--|| 
C|--------------------|-------------------|| 
G|--------------------|-------------------|| 
D|--------------------|-------------------|| 
 
 
{8} 
d||-----------------------------|| 
A||-11/12-11-----12/14---9------|| 
F||-----------------------------|| 
C||-----------------------------|| 
G||-----------------------------|| 
D||-----------------------------|| 
 
A-> essa parte não está muito clara na música. ele só faz na primeira vez, 
 no começo do solo. (this part is not clear in the song, it just hapen in 
 the very begining of the solo). 
B-> já essa parte ele faz bem claro 2x vezes e depois entra uma guitarra 
 toda distorcida com oitava, distorção, wah e um monte de coisa tocando 
 umas 2 ou 3 notas por um tempo. isso voces podem tirar na moral. 
 (this part is very clear and he plays it 2 times before a very distorced 
 solo with a few notes begins. this solo is easy to tabed, but it´s very 
 distorced and i don´t want to put it here, ok?)  
 
 
 
Ordem (see!) 
 
- 1 4x 
- 2  
- 1 e 3 (2x) 
- 4 2x 
- 1 e 3 4x 
- 4 2x 
- 5 
- 6 1x 
- 7 4x 
- 4 2x 
- 4 1x (com um solinho lá) 
- 5  
- muito cheia de riffs, basicamente é um com base no {7} junto com o {8} 
 sendo mais alto e mais distorcido.o problema é que entram 2 guitarras 
 fazendo aqueles solos tipo dave navarro mesmo, cheio de distorção estranha. 
 nessa parte é só você ter como base os riffs que estão nessa tablatura e 
 improvisar em cima, agora, não use muitas notas, para isso, você tem que 
 usar notas longas e as mudanças de notas tem que ser rápidas depois voltar 
 para aquela que começou. é o que faz, basicamente. depois de fazer isso 
 inúmeras vezes, ele vai descendo na escala que usou nos outros riffs  
- (it´s complicaded, but it´s just you do the {8} riff with a base on {7} 
 riff a lot of time and at the end you go down with the scale that he uses 
 all over the song. it´s very easy but it´s complicaded to transcribe this 
 way, you know. and the solo it´s basicaly the first one (the onde that I 
 didn´t put) but at the same time there´s another guitar playing with other 
 solo. So, you have to be an 4 in 1 guitar player to do all the stuffs, 
 so don´t wory, the song it´s cool with the tabs I tabed, I hope..).... 
 
Espero que gostem... (hope you like it!) 
 
 
_______________________________________________________ 
Contribuição: Dennis Christian Nunes de Freitas(dcnfreitas@uol.com.br) 

	  

Request the video "Rexall"  -  Send "Rexall" Ringtone to your Cell

there isn't a video lesson for this song

request
Full key step upFull key step up
Half key step upHalf key step up
Half key step downHalf key step down
Full key step downFull key step down
e-chords
Search
auto scroll beats size up size down change color hide chords drawings
tab show chords e-chords YouTube Clip e-chords hide all tabs e-chords go to top tab