Astor Piazzola

home > Astor Piaz... > chords

Fuga Y Misterio Tab

Astor Piazzola

Difficulty: ExpertExpert

by renejunior

tuner correct add songbook print version text version rtf version e-mail
chordsukulelecavacokeyboardtabbassdrumsharmonicsflute Guitar Pro
chords

Fuga Y Misterio

(Astor Piazzolla)

	  Esta es una transcripción de una partitura del tema Fuga y Misterio de Piazzolla, eso significa  
que no tiene errores en las notas (tal vez se me haya escapado algo al tipearlo). También están  
"escritas" las figuras, o sea la duración de cada nota. Al principio puede ser complicado pero  
cuando te acostumbrás es mucho mejor. En cada compás hay 16 rayitas (-), lo que significa que  
vienen a ser, para llamarlo de algún modo, "silencios de semicorchea".  
Las partes marcadas como "A" son la melodía principal (la más conocida) que se modula varias 
veces al principio y después vuelve a repetirse dos veces más en la tonalidad original (Em).  
La parte B también se repite sobre el final después de la parte del "misterio".  
Hay una parte que omití en el tab, que es la parte más colgada de la canción, que queda sólo 
el bandoneón y el piano. Está aclarado donde es que falta esa parte. 
Si en algún lugar parece que "faltaran" uno, dos o tres compaces o por una cuestión de 
practicidad, para no tener que pasar toda la sección que se repite. 
Espero se haya entendido algo de lo que quise explicar. Saludos. 

 e|----|----------------|----------------|----------------|----------------|A. 
 B|----|----------------|----------------|5-3-1-----------|----------------| 
 G|----|--------0---0-2-|3-4-5-534-----4-|------4-3-0-----|--------444---4-| 
 D|--1-|2-1-2-4---4-----|----------------|------------424-|----3454--------| 
 A|24-2|----------------|----------------|----------------|----------------| 
 E|----|----------------|----------------|----------------|----------------| 

      e|----------------|----------------|----------------|----------------| 
      B|3-10------------|----------------|----------------|----------------| 
      G|----2-1---4-----|2-1-245-----2424|5-420-----2-----|----024~~3444444| 
      D|------------3-2-|----------------|------4-----0---|5-4-------------| 
      A|----------------|----------------|--------------3-|----------------| 
      E|----------------|----------------|----------------|----------------| 

      e|----------------|----------------|----------------|----------------| 
      B|----------------|----------------|----------------|------------5-3-| 
      G|4-2-------4-2---|3-2-------3-2---|2-0-------2-0---|----0---0234----| 
      D|---54-2------542|---54-2------542|---42-1------421|2124--24--------| 
      A|----------------|----------------|----------------|-----2----------| 
      E|----------------|----------------|----------------|------------0140| 

      e|----------------|----------------|----------------|----------------|A2. 
      B|----------------|----------------|----------------|----------------| 
      G|----------------|----------------|----------------|----------------| 
      D|----------------|----------------|7-5-------------|----------------| 
      A|--------------5-|6-7-8-867-----7-|----8-7-6-------|----777-------7-| 
      E|5-4-5-7-8-7-8---|----------------|----------8-757-|6787------------| 

      e|----------------|----------------|----------------|----------------| 
      B|----------------|----------------|----------------|----------------| 
      G|----------------|----------------|----------------|----------------| 
      D|5---------------|----023-----0202|3-20------0-----|-----02~~1222222| 
      A|--875-4---7-----|5-4-------------|----3-2---------|3-2-3-----------| 
      E|------------6-5-|----------------|------------3-1-|----------------| 

      e|----------------|----------------|----------------|------------------| 
      B|----------------|----------------|----------------|------------------| 
      G|----------------|----------------|----------------|------------"--6-"| 
      D|2-0-------2-0---|1-0-------1-0---|0---------0-----|---------012"79-7"| 
      A|---32-0------320|---32-0------320|--320-------320-|0-023-023----0----| 
      E|----------------|----------------|-----4---------4|-4---0---------3--| 

      e|----------------|--------------------|10-8-6-5---------|--------------------|A3. 
      B|--------6---6-8-|9-10-11910-------10-|---------9-6-----|--------101010---10-| 
      G|7-6-7-9---9-----|--------------------|-------------989-|----89109-----------| 
      D|----------------|--------------------|-----------------|--------------------| 
      A|----------------|--------------------|-----------------|--------------------| 
      E|----------------|--------------------|-----------------|--------------------| 

      e|8-65------5-----|-----56-----3535|6-53------3-----|-----35~~4555555| 
      B|----8-7---------|8-7-8-----------|----6-5---------|6-5-6-----------| 
      G|------------8-7-|----------------|------------6-5-|----------------| 
      D|----------------|----------------|----------------|----------------| 
      A|----------------|----------------|----------------|----------------| 
      E|----------------|----------------|----------------|----------------| 

      e|5-310-----5-310-|4-310-----4-310-|3-10------3-10--|---01-----345-10-8-| 
      B|------3--------3|------3--------3|----3-2-------32|323----356---------| 
      G|----------------|----------------|----------------|------2------------| 
      D|----------------|----------------|----------------|-------------------| 
      A|----------------|----------------|----------------|-------------------| 
      E|----------------|----------------|----------------|-------------------| 

      e|----------------|----------------|----------------|----------------|A4. 
      B|----------------|----------------|8-6-------------|----------------| 
      G|--------------5-|6-7-867-------7-|----8-7-6-------|--------777---7-| 
      D|5-4-5-7-8-7-8---|----------------|----------8-757-|----6787--------| 
      A|----------------|----------------|----------------|----------------| 
      E|----------------|----------------|----------------|----------------| 

      e|----------------|----------------|----------------|----------------| 
      B|6---------------|----------------|----------------|----------------| 
      G|--875-----7-----|5---578-----5757|8-75------5-----|-----57~~6777777| 
      D|------9-----6-5-|--9-------------|----8-7---------|8-7-8-----------| 
      A|----------------|----------------|------------8-6-|----------------| 
      E|----------------|----------------|----------------|----------------| 

      e|----------------|----------------|----------------|----------------| 
      B|----------------|----------------|----------------|----------------| 
      G|7-5-------7-5---|6-5-------6-5---|5---------5-----|------------4567| 
      D|---87-5------875|---87-5------875|--875-------875-|5~--------------| 
      A|----------------|----------------|------9--------9|----------------| 
      E|----------------|----------------|----------------|----------------| 

      e|--0-------------|----------------|----------------|----5---10810---|B. 
      B|--5-------------|----------------|--545-----------|--57-875--------| 
      G|--------545-----|--242---545-----|--------545-----|----------------| 
      D|----------------|-----542--------|----------------|----------------| 
      A|----------------|----------------|----------------|----------------| 
      E|----------------|----------------|----------------|----------------| 

      e|----------------|----------------|----------------|----------------| 
      B|--5-----868-----|-4555--45555545-|--3-----646-----|----------------| 
      G|----------------|----------------|----------------|-3444--34444434-| 
      D|----------------|----------------|----------------|----------------| 
      A|----------------|----------------|----------------|----------------| 
      E|----------------|----------------|----------------|----------------| 

      e|----0-----3-----|--575750333-----|----------------|----750-333-----| 
      B|----------------|----------------|----------------|--57---1--------| 
      G|--0-0---3-3-----|----------------|--------434-----|----------------| 
      D|----------------|----------------|----------------|----------------| 
      A|----------------|----------------|--232-----------|----------------| 
      E|----------------|----------------|----------------|----------------| 

      e|--000---33333---|--12--12--------|--555---55555---|--10--10--------| 
      B|--000---00000---|----------------|--888-----------|----------------| 
      G|----------------|--9---9---------|--------66666---|--7---7---------| 
      D|--333---22222---|----------------|--------00000---|--------------1-| 
      A|----------------|----------------|--666-----------|------------24-2| 
      E|----------------|----------------|----------------|----------------| 

      e|----------------|----------------|----------------|----------------|A. 
      B|----------------|----------------|5-3-1-----------|----------------| 
      G|--------0---0-2-|3-4-5-534-----4-|------4-3-0-----|--------444---4-| 
      D|2-1-2-4---4-----|----------------|------------424-|----3454--------| 
      A|----------------|----------------|----------------|----------------| 
      E|----------------|----------------|----------------|----------------| 

      e|----------------|----------------|----------------|----------------| 
      B|3-10------------|----------------|----------------|----------------| 
      G|----2-1---4-----|2-1-245-----2424|5-420-----2-----|----024~~3444444| 
      D|------------3-2-|----------------|------4-----0---|5-4-------------| 
      A|----------------|----------------|--------------3-|----------------| 
      E|----------------|----------------|----------------|----------------| 

      e|----------------|----------------|----------------|----------------| 
      B|----------------|----------------|----------------|----------------| 
      G|4-2-------4-2---|3-2-------3-2---|2-0-------2-0---|----------------| 
      D|---54-2------542|---54-2------542|---42-1------421|2~--------------| 
      A|----------------|----------------|----------------|----------------| 
      E|----------------|----------------|----------------|----------------| 

      e|---------------7|755~------------|--------7-----5-|533~------------|C. 
      B|5-------5-5---5-|----------------|3---5-----------|----------------| 
      G|----------------|----------------|-----878--------|----------------| 
      D|----------------|----------------|----------------|----------------| 
      A|----------------|----------------|----------------|----------------| 
      E|----------------|----------------|----------------|----------------| 

      e|----------------|----------------|--------3-----2-|200---------5-7/14| 
      B|----8---------8-|877~------------|----------------|-----------5-8----| 
      G|5---------4-5---|----------------|4---5434--------|---------04-------| 
      D|----------------|----------------|----------------|------------------| 
      A|----------------|----------------|----------------|------------------| 
      E|----------------|----------------|----------------|------------------| 

      e|--------------7-|7-5-5----475----|--------7-----5-|5---------5-----|C2. 
      B|5---------5-5---|------------875-|----5-----------|--8-8----7-8-75-| 
      G|----------------|---------------8|7----767--------|---------------7| 
      D|----------------|----------------|----------------|-------------tri| 
      A|----------------|----------------|----------------|----------------| 
      E|----------------|----------------|----------------|----------------| 

      e|----------------|----------------|--------5-----2-|230~|12~*|12~*|19~*| 
      B|----8---8-----8-|8-7-7~----------|----------------|----|----|----|----| 
      G|5---------4-5---|----------------|4---5434--------|----|----|----|----| 
      D|----------------|----------------|----------------|----|----|----|----| 
      A|----------------|----------------|----------------|----|----|----|----| 
      E|----------------|----------------|----------------|----|----|----|----| 

        Acá iría la parte que falta!!! 

      e|----------------| 
      B|----------------| 
      G|----------------| 
      D|----------------| 
      A|2---4---5---6---| 
      E|----------------| 

      e|--0-------------|----------------|----------------|----5---10810---|B. 
      B|--5-------------|----------------|--545-----------|--57-875--------| 
      G|--------545-----|--242---545-----|--------545-----|----------------| 
      D|----------------|-----542--------|----------------|----------------| 
      A|----------------|----------------|----------------|----------------| 
      E|----------------|----------------|----------------|----------------| 

      e|----------------|----------------|----------------|----------------| 
      B|--5-----868-----|-4555--45555545-|--3-----646-----|----------------| 
      G|----------------|----------------|----------------|-3444--34444434-| 
      D|----------------|----------------|----------------|----------------| 
      A|----------------|----------------|----------------|----------------| 
      E|----------------|----------------|----------------|----------------| 

      e|----0-----3-----|--575750333-----|----------------|----750-333-----| 
      B|----------------|----------------|----------------|--57---1--------| 
      G|--0-0---3-3-----|----------------|--------434-----|----------------| 
      D|----------------|----------------|----------------|----------------| 
      A|----------------|----------------|--232-----------|----------------| 
      E|----------------|----------------|----------------|----------------| 

      e|--000---33333---|--12--12--------|--555---55555---|--10--10--------| 
      B|--000---00000---|----------------|--888-----------|----------------| 
      G|----------------|--9---9---------|--------66666---|--7---7---------| 
      D|--333---22222---|----------------|--------00000---|--------------1-| 
      A|----------------|----------------|--666-----------|------------24-2| 
      E|----------------|----------------|----------------|----------------| 

      e|----------------|----------------|----------------|----------------|A. 
      B|----------------|----------------|5-3-1-----------|----------------| 
      G|--------0---0-2-|3-4-5-534-----4-|------4-3-0-----|--------444---4-| 
      D|2-1-2-4---4-----|----------------|------------424-|----3454--------| 
      A|----------------|----------------|----------------|----------------| 
      E|----------------|----------------|----------------|----------------| 

      e|----------------|----------------|----------------|----------------| 
      B|3-10------------|----------------|----------------|----------------| 
      G|----2-1---4-----|2-1-245-----2424|5-420-----2-----|----024~~3444444| 
      D|------------3-2-|----------------|------4-----0---|5-4-------------| 
      A|----------------|----------------|--------------3-|----------------| 
      E|----------------|----------------|----------------|----------------| 

      e|----------------|----------------|----------------| 
      B|----------------|----------------|----------------| 
      G|4-2-------4-2---|3-2-------3-2---|2-0-------2-0---| 
      D|---54-2------542|---54-2------542|---42-1------421| 
      A|----------------|----------------|----------------| 
      E|----------------|----------------|----------------| 

      e|-3333~-3333~~333|----------------|-3333~-3333~~333|----------------|D. 
      B|-5555~-5555~~555|----------------|-5555~-5555~~555|--------31------| 
      G|----------------|--24242-000-----|----------------|--242424--42----| 
      D|----------------|-------2111-----|----------------|------------54--| 
      A|----------------|----------------|----------------|--------------76| 
      E|----------------|----------------|----------------|----------------| 

      e|----------------|--------------7-|2~~~--2~~~--2~~~|--2~~~--2~~~--2~| 
      B|----------------|5-4-5-7-8-7-8---|4~~~--4~~~--4~~~|--4~~~--4~~~--4~| 
      G|--------------4-|----------------|3~~~--3~~~--3~~~|--3~~~--3~~~--3~| 
      D|2-1-2-4-5-4-5---|----------------|----------------|----------------| 
      A|----------------|----------------|----------------|----------------| 
      E|----------------|----------------|----------------|----------------| 

      e|----------------|------0~~--23236|3~----3~-3333333|3~--------------| 
      B|----------------|2~-124---45-----|5~----5~-5555555|5~--------------| 
      G|------0~~-023235|----------------|4~----4~-4444444|4~--------------| 
      D|2~-124---4------|----------------|---------2222222|2~--------------| 
      A|----------------|----------------|---------2222222|2~--------------| 
      E|----------------|----------------|---------0000000|0~--------------|
	  

Request the video "Fuga Y Misterio"  -  Send "Fuga Y Misterio" Ringtone to your Cell

there isn't a video lesson for this song

request
Full key step upFull key step up
Half key step upHalf key step up
Half key step downHalf key step down
Full key step downFull key step down
e-chords
Search
auto scroll beats size up size down change color hide chords drawings
tab show chords e-chords YouTube Clip e-chords hide all tabs e-chords go to top tab