Astor Piazzola

home > Astor Piazzola

Milonga Del Angel Tab

Astor Piazzola

Difficulty: ExpertExpert

by renejunior

tuner correct add songbook print version text version save to e-mail
chordsukulelecavacokeyboardtabbassdrumsharmonicsflute Guitar Pro
chords

Milonga Del Angel

(Astor Piazzolla)

  		Andantino cantabile (melodia en armonicos) 


              .                          .               
E||--5-----------------------|--5--------------------0--| 
B||--------5--0-----5-----8--|--------5--0-----5--------| 
G||-----5--------5-----------|-----5--------5-----------| 
D||--------------------------|--------------------------| 
A||-----------7--------------|-----------7--------------| 
E||--5-----------------0-----|--5-----------------0-----| 
      
     1  1  1     1 1      4     1  1  1  3  1  1   
     1        3                 1 
  
                                                      
                            
--5--------------------8--|--5----------------------| 
--------5--0-----5--------|--------5--0-----5-------| 
-----5--------5-----------|-----5--------5----------| 
--------------------------|-------------------------| 
-----------7--------------|-----------7-------------| 
--5-----------------0-----|--5-----------------0----| 

  1  1  1  3  1  1     4     1  1  1  3  1  1   
  1 

                                                        
--8--------------------7-5-|--8-----------------7-8-7-----| 
--------5--------5---------|--------5--------5--------10--| 
-----5--------5------------|-----5--------5---------------| 
---------------------------|------------------------------| 
-----------8--------7------|-----------8--------7---------| 
--5------------------------|--5---------------------------| 

  4  1  1     1   1 3  4 1    4  1  1     1  1  1 2 1 4 
  1       4                   1        4        1 

                                                      
--8-----------------7--6-5-|--------------------------| 
--------5--------5---------|--5-----------------------| 
-----5--------5------------|-----------5--5-----------| 
---------------------------|--------------------------| 
-----------8--------7------|----7--8--------8--8H-7---| 
--5------------------------|--5-----------------------| 

  4                 4  2      1 3  4   1    4  4  3  
  1        3        3         1 
  
                                                                                
--5----------------5-----|-5-----------------3-----|--0--1--3----------| 
----------5--6--8----8-6-|-------------3--5-----6--|--0--------------3-| 
-------5-----------------|----------4--------------|--0--------------0-| 
----7--------------------|-------3-----------------|--2-----------0----| 
--5----------------------|----5--------------------|--3--------2-------| 
-------------------------|-3-----------------------|-------------------| 
  
  1 3  1  1  2  4  1 4 2   4  3     2     4     4     
  1                           1 
    
                                                                        
-----------0--1----3-1-0---|--0-----------------------| 
-----2--3-----0----------3-|--0----3----3---1-0-3-1-0-| 
-----0--------2------------|--1---------2-------------| 
---------------------------|------------3-------------| 
-----------3--2------------|--------------------------| 
--1------------------------|--0---------0-------------| 


                                                       
---------------------------|--------0--0--5--5--7--7--| 
--1--0-0-1--0-----------0--|--1--1--0-----------------| 
--2------------2-----2-----|--------------------------| 
--2------------2--2--------|--------3-----------------| 
--0------------0-----------|--------------------------| 
---------------------------|--3-----------------------| 


                                                             
--8--7--5--7-8-8s-10-8--7h8p7-5h7-|--3--------------1--3-1-0---| 
--7-------------------------------|-----------2--1-----------3-| 
--5-------------------------------|----------------------------| 
--7-------------------------------|--------1-------------------| 
--0-------------------------------|-----3----------------------| 
----------------------------------|--1-------------------------| 
  
  4  3  1  3 4    4  2  1 2   1 3    4  3  1  2     
  3  
  1                                  1 
  2   

                                                                          
--0----------------------|-----------------------------------| 
-------1-----3--0-----1--|--------0--------------------------| 
----------2--------0-----|--2--------0-----2--------0--------| 
-------------------------|-----3--------2-----3--0-----2-----|   
-------------------------|--------------------------------3--|      
--0----------------------|-----------------------------------| 

      1   2  3        1     2  3        1  2  3        1  2  


|--8----------------7--5--| 
|--------5--5--5----------| 
|--------5--5--5----------| 
|-------------------------| 
|-----8--------7----------| 
|--5----------------------| 



                                                         
--8----------------7-8-7-5-|--8------------------7-6-5-| 
--------5--5--5------------|--------5--5--5------------| 
--------5--5--5------------|--------5--5--5------------| 
---------------------------|---------------------------| 
-----8--------7------------|-----8--------7------------| 
--5------------------------|--5------------------------| 
   
  4  3  
  1 

                                                           
--0---------------------0-1-|-3S-5--------------3--5-3---| 
-------1--1--1----0-1-3-----|----------------3---------6-| 
-------2--2--2--2-----------|-------------4--------------| 
-------3--3--3--------------|----------3-----------------| 
--0-------------------------|-------5--------------------| 
----------------------------|----3-----------------------| 

                              4 

                                                                           
--5-5---3--5S-8--5--------|------------------|---------------------| 
--------5----------8--5---|---------0--------|---------------------| 
--------3---------------5-|--2------2--------|--0------------------| 
--------------------------|--0------0--------|-------3--3P-2--0----| 
----3---------------------|--0------2--3--2--|-------------------3-| 
--------------------------|--1---------------|---------------------| 

    4   1  4      
        3 
    1   1 
                                                         
-------------0--1---3-1-0-|-----0----------------------| 
---------3----------------|--3--0---3------3-1-0-3-1-0-| 
------2-------------------|-----1----------2-----------| 
------0-------------------|----------------3-----------| 
---2---------3--2---------|----------------------------| 
--------------------------|-----0----------0-----------| 


                                                       
---------------------------|-------------0--5--4--5-7-| 
---1--0-0P-1H-0----0---1-0-|------0---1---------------| 
---2------------2----------|---2----------------------| 
---2------------2----------|---2----------------------| 
---0------------0----------|--------------------------| 
---------------------------|---3----------------------| 


                                                          
--8--7H-8P-7-7S-10--8--7--|----7-------------------------| 
--7-----------------------|-10-----------------7--10-9-7-| 
--8-----------------------|---------8--------7-----------| 
--7-----------------------|-------7----------------------| 
--0-----------------------|----8-------8--7--------------| 
--------------------------|------------------------------| 

  4  3  4  3        2   1   4  1  1 3     1  1 1   4 3 1   
  2                            2   
  3 
  1 

                                                   
----------------------------|--5-----------------------| 
--9-10-----------0----5-----|--------5--0---------5----| 
--------------9----5--------|-----5-----------5--------| 
----------10----------------|--------------------------| 
----0------------7----------|-----------7--------------| 
-------------------------0--|--5--------------------0--| 
   
  3 4      3  2  3 1  1        1 

                                                       
-----0--1-----0--3-----0--|--5--3--5-----------------| 
-----2--2-----2--2--------|--3-----------------------| 
-----0--0-----0--0--------|--3-------3--3h-2---------| 
--------------------------|--3---------------3--3H-2-| 
--0--------1--------0-----|--0-----------------------| 
--------------------------|--------------------------| 

        2        4 
    3   3  1  3  3 


                                                       
--------0-----------------|--0-----0-----------------| 
-----3--------1--3-----0--|--1--3--------------------| 
-----2--------2-----------|--------------------------| 
--0--------0--------0-----|--0-----------------------| 
--------------------------|-----------0-----0--------| 
--------------------------|--------------4-----0--1--| 

    3         1  3        
    2         2  
   

                                                  
-----2--3-----2--5-----2--|--7-------7-----------------| 
-----1--1-----5--5--------|--7---10--------------------| 
-----2--2-----2--2--------|--9-------------------------| 
--------------------------|--10------------------------| 
-----------3--------2-----|-------------3--3h-2--------| 
-H2-----------------------|---------------------3-3H-2-| 

        4  2  1  4     1     1   4  
              4  4  1        1 
              1  1           2 
                             3  
   
                                                                          
------------------------|--2-0-2--------------|-------------0--1----2--| 
-----0--1----2--3----4--|--0------------------|-----3--4---------------| 
------------------------|--0------------------|------------------------| 
----------------0----1--|---------------------|-----0--1----2--3----4--| 
-----2--3----4----------|---------------------|------------------------| 
--0---------------------|--0------0--1---2-H--|--3---------------------| 



                                                                             
--5-3-5--------------|-------1--2--3--4----5--|--8--7--8----------------| 
--3------------------|------------------------|--6-------------6--------| 
--3------------------|-------------0--1----2--|--6-----------7-------7--| 
---------------------|-------3--4-------------|-------------------------| 
------------------0--|H-1---------------------|-----------9-------8-----| 
--3------3H--4-------|------------------------|--6----------------------| 
     
                                                 3  2  3  4  2    3  
                                                 1  
                                                 1     
                                                 1 
                                                       
--8-----9-----------6-----|--8-----------6-----------| 
--------------------------|--------9-----------------| 
-----6-----6-----6-----6--|-----6-----6-----6-----6--| 
--------------------------|--------------------------| 
--------8-----8-----8-----|--------8-----8-----8-----| 
--6-----------------6-----|--6-----------6-----------| 

  3  1  4  1                 3     4      
  1     3     3                    3 
                                                                              
--------------------------|-----------------------|-------------------------| 
--7-----9-----------6-----|--7----6---------------|--------6----------------| 
-----6-----6-----6-----6--|--7---------6----------|-----6-------------6-----| 
--------------------------|-----------------8-----|-------------8--8--------| 
--------8-----8-----8-----|--------------------9--|--8----------9-----------| 
--6-----------------6-----|--6--------------------|--6-------------------1--| 
  
  2     4                    3    2    2    3  4     3  1  1    3 
  1     3                    2                       1          4        1 
                             1 

                                                    
-------1--------1----|------------1--------3--2--|--1-----------------------| 
----2--------2-------|--4------------------------|-----1-----4--------2--1--| 
----------3----------|-----3---------3-----------|--------------2-----------| 
----------4--------3-|--1-----4---------3--------|--------3--------3--------| 
-1-------------------|------------4--------3--1--|--0-----------------------| 
---------------------|---------------------------|-----------1========S=====| 
                                                             ^ 
                                                              hold it !! 
                                                                                
--------------------------|--8--------6-----4--2--1--|--0-------------------| 
--------6-----------------|--------------------------|----------1-----------| 
--6--8-----------6-----6--|-----6--------6-----------|-------3--------3-----| 
--------------8-----------|--------8-----------------|-------------2--------| 
-----------9--------8-----|-----------8--------------|----------------------| 
S-6-----------------------|--4-----------------4-----|--3----------------3--| 
   
  1  3     4  3  1  3         
   
                                                      
--0----------------------|--1--------2--------1-----| 
--------2--1-------------|-----1--------1--------1--| 
-----3-------------3-----|--------2--------2--------| 
----------------1--------|--------------------------| 
-------------------------|--------------------------| 
--2-------------------2--|--1-----------------------| 


                                                        
---------------------------|-----------1--------1-----| 
--4---------2--------1-----|-----------2--------2-----| 
------2--------2-------2---|--------3--------3--------| 
---------1--------1------1-|--------------4--------3--| 
---------------------------|-----1--------------------| 
--1------------------------|--1-----------------------| 
                                
                              1  1  3  1     3     4 
                                       2  4   

                                                                               
--------1----------1-----|--------0----------0-----|--------0--------0-------| 
--------2----------2-----|--------1----------1-----|--------1--------1-------| 
-----3----------3--------|-----2----------2--------|-----2--------2----------| 
-----------4----------3--|-----------3----------2--|-----------3----------2--| 
--1----------------------|--0----------------------|--0----------------------| 
-------------------------|-------------------------|-------------------------| 
                                                                
                               2  1  3    2  1  2        3     4          2 
--------------------------- 
                                                       
--5-----------------------|--5--------------------0--| 
--------5--0-----5-----8--|--------5--0-----5--------| 
-----5--------5-----------|-----5--------5-----------| 
--------------------------|--------------------------| 
-----------7--------------|-----------7--------------| 
--5-----------------0-----|--5-----------------0-----| 


                                                      
--5--------------------8--|--5----------------------| 
--------5--0-----5--------|--------5--0-----5-------| 
-----5--------5-----------|-----5--------5----------| 
--------------------------|-------------------------| 
-----------7--------------|-----------7-------------| 
--5-----------------0-----|--5-----------------0----| 
                                               

--8--5--------------------|-----------------------5--|| 
-----------5--0-----5-----|-----------------------5--|| 
--------5--------5--------|--------------5H-6-----5--|| 
--------------------------|-----------7-----------7--|| 
--------------7-----------|-----7H-8--------------8--|| 
-----5-----------------0--|--5--------------------5--||
	  

Search Paypal
auto scroll beats size up size down change color hide chords drawings
tab show chords e-chords YouTube Clip e-chords hide all tabs e-chords go to top tab