Alci Acosta

home > Alci Acost... > chords

Alma Tumaqueña Tab

Alci Acosta

Difficulty: nolevelnolevel

by deivcavalcanti

tuner correct add songbook print version text version rtf version e-mail
chordsukulelecavacokeyboardtabbassdrumsharmonicsflute Guitar Pro
chords

Alma Tumaqueña

(Manuel Benitez)

	  Hola la intro  original es en piano pero yo la transcribí para 
guitarra y dice así 
Afinación Standard 

------------------9-9--9--11--13--11--9--8-----8--9--11--9--8--6------- 
--6-6-6-6-6-6-------------------------------9--------------------8----- 
----------------------------------------------------------------------- 
----------------------------------------------------------------------- 
----------------------------------------------------------------------- 
----------------------------------------------------------------------- 


----------6--8--6------------------------------------------------------ 
---8--9-------------9--8---6------------------------------------------- 
----------------------------------------------------------------------- 
----------------------------------------------------------------------- 
----------------------------------------------------------------------- 
----------------------------------------------------------------------- 

Esta parte  es como es solo 

---------------------10----------------------10--13--12--10--8--------- 
---6--8--6---5--6-----------------10--11------------------------------- 
----------------------------------------------------------------------- 
----------------------------------------------------------------------- 
----------------------------------------------------------------------- 
----------------------------------------------------------------------- 



----------------------------------------------------------------------- 
-6-6-6-6--8------------------------------------------------------------ 
-------------9--9----5-7-7-6-5--3-2------------------------------------ 
----------------------------------------------------------------------- 
----------------------------------------------------------------------- 
----------------------------------------------------------------------- 

Cualquier cosa al mi mail   Pedro_v888@hotmail.com
	  

Request the video "Alma Tumaqueña"  -  Send "Alma Tumaqueña" Ringtone to your Cell

there isn't a video lesson for this song

request
Search
auto scroll beats size up size down change color hide chords drawings
tab show chords e-chords YouTube Clip e-chords hide all tabs e-chords go to top tab