Juan Fernando Velazco

Para Que No Me Olvides

Juan Fernando Velazco

tabs Beginner beginner

by  CAPUU

save to print version add songbook text version e-mail correct tuner
chordsukulelecavacokeyboardtabbassdrumsharmonicaflute Guitar Pro
close

there isn't a video lesson for this song

chords

Para Que No Me Olvides

	  		|---5/7--7-7-------------------------5-7-8/10-8---7/8-8-8-7-5------------| 
|-----------8-7-7h8-7-5v---3/5-7-8---------------------------8-7h8-7v---| 
|------------------------------------------------------------------------------------| 
|------------------------------------------------------------------------------------| 
|------------------------------------------------------------------------------------| 
|------------------------------------------------------------------------------------| 


|----7-8/10-10-8-7--------5/7-7-7---------------------5-7-8/10-8------| 
|-7-8----------------------------8-7-7h8-7-5v--3/5-7-8--------------------| 
|-----------------------------------------------------------------------------------| 
|-----------------------------------------------------------------------------------| 
|-----------------------------------------------------------------------------------| 
|-----------------------------------------------------------------------------------| 

|-----8-10-10/12-10-8-8-7-------------------------------------------------| 
|-------------------------8v-7h8-8-8-7h8-8-8----7-7-7---5V------------| 
|---------------------------------------------------------------------------------| 
|---------------------------------------------------------------------------------| 
|---------------------------------------------------------------------------------| 
|---------------------------------------------------------------------| 

unas cuantas indicaciones de mi parte..  
e----                   v-->vibrato 
b----                   /-->slide 
g----                   h-->hammer on 
d---- 
a---- 
e---- 
		  

See also:

tabs Amigos invisibles - Dime Que Le Cuento tabs Bacilos - Guerras Perdidas tabs Alci Acosta - El Bacan tabs Aterciopelados - La Culpable tabs Andrés Cabas - Primer Amor tabs Andres Barba - El Beso
e-chords

Other versions:

tabs Juan Fernando Velazco - Para Que No Me Olvides
auto scroll beats size up size down change color hide chords drawings
tab show chords e-chords YouTube Clip e-chords hide all tabs e-chords go to top tab

share